  0
SECTION
  2
HEADER
  9
$ACADVER
  1
AC1015
  9
$ACADMAINTVER
 70
    20
  9
$DWGCODEPAGE
  3
ANSI_1252
  9
$INSBASE
 10
0.0
 20
0.0
 30
0.0
  9
$EXTMIN
 10
1.0
 20
1.000000000000113
 30
0.0
  9
$EXTMAX
 10
419.0
 20
296.0000000000001
 30
0.0
  9
$LIMMIN
 10
0.0
 20
0.0
  9
$LIMMAX
 10
420.0
 20
297.0
  9
$ORTHOMODE
 70
     1
  9
$REGENMODE
 70
     1
  9
$FILLMODE
 70
     1
  9
$QTEXTMODE
 70
     0
  9
$MIRRTEXT
 70
     0
  9
$LTSCALE
 40
1.0
  9
$ATTMODE
 70
     1
  9
$TEXTSIZE
 40
2.5
  9
$TRACEWID
 40
1.0
  9
$TEXTSTYLE
  7
STANDARD
  9
$CLAYER
  8
0
  9
$CELTYPE
  6
ACAD_ISO05W100
  9
$CECOLOR
 62
     7
  9
$CELTSCALE
 40
1.0
  9
$DISPSILH
 70
     0
  9
$DIMSCALE
 40
1.0
  9
$DIMASZ
 40
2.5
  9
$DIMEXO
 40
0.625
  9
$DIMDLI
 40
3.75
  9
$DIMRND
 40
0.0
  9
$DIMDLE
 40
0.0
  9
$DIMEXE
 40
1.25
  9
$DIMTP
 40
0.0
  9
$DIMTM
 40
0.0
  9
$DIMTXT
 40
2.5
  9
$DIMCEN
 40
2.5
  9
$DIMTSZ
 40
0.0
  9
$DIMTOL
 70
     0
  9
$DIMLIM
 70
     0
  9
$DIMTIH
 70
     0
  9
$DIMTOH
 70
     0
  9
$DIMSE1
 70
     0
  9
$DIMSE2
 70
     0
  9
$DIMTAD
 70
     1
  9
$DIMZIN
 70
     0
  9
$DIMBLK
  1

  9
$DIMASO
 70
     1
  9
$DIMSHO
 70
     1
  9
$DIMPOST
  1

  9
$DIMAPOST
  1

  9
$DIMALT
 70
     0
  9
$DIMALTD
 70
     4
  9
$DIMALTF
 40
0.0394
  9
$DIMLFAC
 40
1.0
  9
$DIMTOFL
 70
     1
  9
$DIMTVP
 40
0.0
  9
$DIMTIX
 70
     0
  9
$DIMSOXD
 70
     0
  9
$DIMSAH
 70
     0
  9
$DIMBLK1
  1

  9
$DIMBLK2
  1

  9
$DIMSTYLE
  2
STANDARD
  9
$DIMCLRD
 70
     0
  9
$DIMCLRE
 70
     0
  9
$DIMCLRT
 70
     0
  9
$DIMTFAC
 40
1.0
  9
$DIMGAP
 40
0.625
  9
$DIMJUST
 70
     0
  9
$DIMSD1
 70
     0
  9
$DIMSD2
 70
     0
  9
$DIMTOLJ
 70
     1
  9
$DIMTZIN
 70
     0
  9
$DIMALTZ
 70
     0
  9
$DIMALTTZ
 70
     0
  9
$DIMUPT
 70
     0
  9
$DIMDEC
 70
     4
  9
$DIMTDEC
 70
     4
  9
$DIMALTU
 70
     8
  9
$DIMALTTD
 70
     4
  9
$DIMTXSTY
  7
STANDARD
  9
$DIMAUNIT
 70
     0
  9
$DIMADEC
 70
     0
  9
$DIMALTRND
 40
0.0
  9
$DIMAZIN
 70
     0
  9
$DIMDSEP
 70
    46
  9
$DIMATFIT
 70
     3
  9
$DIMFRAC
 70
     0
  9
$DIMLDRBLK
  1

  9
$DIMLUNIT
 70
     6
  9
$DIMLWD
 70
    -2
  9
$DIMLWE
 70
    -2
  9
$DIMTMOVE
 70
     0
  9
$LUNITS
 70
     2
  9
$LUPREC
 70
     4
  9
$SKETCHINC
 40
1.0
  9
$FILLETRAD
 40
0.0
  9
$AUNITS
 70
     0
  9
$AUPREC
 70
     0
  9
$MENU
  1
.
  9
$ELEVATION
 40
0.0
  9
$PELEVATION
 40
0.0
  9
$THICKNESS
 40
0.0
  9
$LIMCHECK
 70
     0
  9
$CHAMFERA
 40
10.0
  9
$CHAMFERB
 40
10.0
  9
$CHAMFERC
 40
20.0
  9
$CHAMFERD
 40
0.0
  9
$SKPOLY
 70
     0
  9
$TDCREATE
 40
2451306.659224537
  9
$TDUCREATE
 40
2451306.575892894
  9
$TDUPDATE
 40
2459821.550844907
  9
$TDUUPDATE
 40
2459821.467511575
  9
$TDINDWG
 40
1.3076848148
  9
$TDUSRTIMER
 40
1.3076848148
  9
$USRTIMER
 70
     1
  9
$ANGBASE
 50
0.0
  9
$ANGDIR
 70
     0
  9
$PDMODE
 70
    35
  9
$PDSIZE
 40
-2.0
  9
$PLINEWID
 40
0.0
  9
$SPLFRAME
 70
     0
  9
$SPLINETYPE
 70
     6
  9
$SPLINESEGS
 70
     8
  9
$HANDSEED
  5
A87
  9
$SURFTAB1
 70
     6
  9
$SURFTAB2
 70
     6
  9
$SURFTYPE
 70
     6
  9
$SURFU
 70
     6
  9
$SURFV
 70
     6
  9
$UCSBASE
  2

  9
$UCSNAME
  2

  9
$UCSORG
 10
0.0
 20
0.0
 30
0.0
  9
$UCSXDIR
 10
1.0
 20
0.0
 30
0.0
  9
$UCSYDIR
 10
0.0
 20
1.0
 30
0.0
  9
$UCSORTHOREF
  2

  9
$UCSORTHOVIEW
 70
     0
  9
$UCSORGTOP
 10
0.0
 20
0.0
 30
0.0
  9
$UCSORGBOTTOM
 10
0.0
 20
0.0
 30
0.0
  9
$UCSORGLEFT
 10
0.0
 20
0.0
 30
0.0
  9
$UCSORGRIGHT
 10
0.0
 20
0.0
 30
0.0
  9
$UCSORGFRONT
 10
0.0
 20
0.0
 30
0.0
  9
$UCSORGBACK
 10
0.0
 20
0.0
 30
0.0
  9
$PUCSBASE
  2

  9
$PUCSNAME
  2

  9
$PUCSORG
 10
0.0
 20
0.0
 30
0.0
  9
$PUCSXDIR
 10
1.0
 20
0.0
 30
0.0
  9
$PUCSYDIR
 10
0.0
 20
1.0
 30
0.0
  9
$PUCSORTHOREF
  2

  9
$PUCSORTHOVIEW
 70
     0
  9
$PUCSORGTOP
 10
0.0
 20
0.0
 30
0.0
  9
$PUCSORGBOTTOM
 10
0.0
 20
0.0
 30
0.0
  9
$PUCSORGLEFT
 10
0.0
 20
0.0
 30
0.0
  9
$PUCSORGRIGHT
 10
0.0
 20
0.0
 30
0.0
  9
$PUCSORGFRONT
 10
0.0
 20
0.0
 30
0.0
  9
$PUCSORGBACK
 10
0.0
 20
0.0
 30
0.0
  9
$USERI1
 70
     0
  9
$USERI2
 70
     0
  9
$USERI3
 70
     0
  9
$USERI4
 70
     0
  9
$USERI5
 70
     0
  9
$USERR1
 40
0.0
  9
$USERR2
 40
0.0
  9
$USERR3
 40
0.0
  9
$USERR4
 40
0.0
  9
$USERR5
 40
0.0
  9
$WORLDVIEW
 70
     1
  9
$SHADEDGE
 70
     3
  9
$SHADEDIF
 70
    70
  9
$TILEMODE
 70
     1
  9
$MAXACTVP
 70
    48
  9
$PINSBASE
 10
0.0
 20
0.0
 30
0.0
  9
$PLIMCHECK
 70
     0
  9
$PEXTMIN
 10
1.000000000000000E+20
 20
1.000000000000000E+20
 30
1.000000000000000E+20
  9
$PEXTMAX
 10
-1.000000000000000E+20
 20
-1.000000000000000E+20
 30
-1.000000000000000E+20
  9
$PLIMMIN
 10
0.0
 20
0.0
  9
$PLIMMAX
 10
420.0
 20
297.0
  9
$UNITMODE
 70
     0
  9
$VISRETAIN
 70
     1
  9
$PLINEGEN
 70
     0
  9
$PSLTSCALE
 70
     1
  9
$TREEDEPTH
 70
  3020
  9
$CMLSTYLE
  2
STANDARD
  9
$CMLJUST
 70
     0
  9
$CMLSCALE
 40
20.0
  9
$PROXYGRAPHICS
 70
     1
  9
$MEASUREMENT
 70
     1
  9
$CELWEIGHT
370
    50
  9
$ENDCAPS
280
     0
  9
$JOINSTYLE
280
     0
  9
$LWDISPLAY
290
     0
  9
$INSUNITS
 70
     0
  9
$HYPERLINKBASE
  1

  9
$STYLESHEET
  1
HP_SW.ctb
  9
$XEDIT
290
     1
  9
$CEPSNTYPE
380
     0
  9
$PSTYLEMODE
290
     1
  9
$FINGERPRINTGUID
  2
{4790F1CD-6DDF-43FC-9598-EFB50E49659B}
  9
$VERSIONGUID
  2
{679C5E18-5697-D246-9F80-06836AF66CE3}
  9
$EXTNAMES
290
     1
  9
$PSVPSCALE
 40
0.0
  9
$OLESTARTUP
290
     0
  0
ENDSEC
  0
SECTION
  2
CLASSES
  0
CLASS
  1
PH_VARS
  2
PhoenixVars
  3
PHOENIX7010
 90
        0
280
     0
281
     0
  0
CLASS
  1
PH_GROUP
  2
PhGroup
  3
PHOENIX7010
 90
        0
280
     0
281
     0
  0
CLASS
  1
ACDBDICTIONARYWDFLT
  2
AcDbDictionaryWithDefault
  3
ObjectDBX Classes
 90
        0
280
     0
281
     0
  0
CLASS
  1
MATERIAL
  2
AcDbMaterial
  3
ObjectDBX Classes
 90
     1153
280
     0
281
     0
  0
CLASS
  1
VISUALSTYLE
  2
AcDbVisualStyle
  3
ObjectDBX Classes
 90
     4095
280
     0
281
     0
  0
CLASS
  1
TABLESTYLE
  2
AcDbTableStyle
  3
ObjectDBX Classes
 90
     4095
280
     0
281
     0
  0
CLASS
  1
SCALE
  2
AcDbScale
  3
ObjectDBX Classes
 90
     1153
280
     0
281
     0
  0
CLASS
  1
MLEADERSTYLE
  2
AcDbMLeaderStyle
  3
ACDB_MLEADERSTYLE_CLASS
 90
     4095
280
     0
281
     0
  0
CLASS
  1
AEC_REFEDIT_STATUS_TRACKER
  2
AecDbRefEditStatusTracker
  3
AecArchBase60|Product Desc: Autodesk Architectural Desktop 2007 |Company: Autodesk,Inc. |WEB Address: www.autodesk.com
 90
    32897
280
     0
281
     0
  0
CLASS
  1
NPOCOLLECTION
  2
AcDbImpNonPersistentObjectsCollection
  3
ObjectDBX Classes
 90
    33921
280
     0
281
     0
  0
CLASS
  1
CELLSTYLEMAP
  2
AcDbCellStyleMap
  3
ObjectDBX Classes
 90
     1152
280
     0
281
     0
  0
CLASS
  1
DICTIONARYVAR
  2
AcDbDictionaryVar
  3
ObjectDBX Classes
 90
        0
280
     0
281
     0
  0
CLASS
  1
PDFDEFINITION
  2
AcDbPdfDefinition
  3
ObjectDBX Classes
 90
     1153
280
     0
281
     0
  0
CLASS
  1
PDFUNDERLAY
  2
AcDbPdfReference
  3
ObjectDBX Classes
 90
     4095
280
     0
281
     1
  0
CLASS
  1
ACDBPLACEHOLDER
  2
AcDbPlaceHolder
  3
ObjectDBX Classes
 90
        0
280
     0
281
     0
  0
CLASS
  1
LAYOUT
  2
AcDbLayout
  3
ObjectDBX Classes
 90
        0
280
     0
281
     0
  0
CLASS
  1
ACDBSECTIONVIEWSTYLE
  2
AcDbSectionViewStyle
  3
ObjectDBX Classes
 90
     1025
280
     0
281
     0
  0
CLASS
  1
ACDBDETAILVIEWSTYLE
  2
AcDbDetailViewStyle
  3
ObjectDBX Classes
 90
     1025
280
     0
281
     0
  0
CLASS
  1
EXACXREFPANELOBJECT
  2
ExAcXREFPanelObject
  3
EXAC_ESW
 90
    33793
280
     0
281
     0
  0
ENDSEC
  0
SECTION
  2
TABLES
  0
TABLE
  2
VPORT
  5
8
102
{ACAD_XDICTIONARY
360
6BC
102
}
330
0
100
AcDbSymbolTable
 70
     1
  0
VPORT
  5
4A1
330
8
100
AcDbSymbolTableRecord
100
AcDbViewportTableRecord
  2
*ACTIVE
 70
     0
 10
0.0
 20
0.0
 11
1.0
 21
1.0
 12
210.0000009778888
 22
148.500000691507
 13
0.0
 23
0.0
 14
10.0
 24
10.0
 15
10.0
 25
10.0
 16
0.0
 26
0.0
 36
1.0
 17
0.0
 27
0.0
 37
0.0
 40
297.1304577720452
 41
1.897163120567375
 42
50.0
 43
0.0
 44
0.0
 50
0.0
 51
0.0
 71
     0
 72
   100
 73
     1
 74
     0
 75
     0
 76
     0
 77
     0
 78
     0
281
     0
 65
     1
110
0.0
120
0.0
130
0.0
111
1.0
121
0.0
131
0.0
112
0.0
122
1.0
132
0.0
 79
     0
146
0.0
1001
ACAD_NAV_VCDISPLAY
1070
     3
  0
ENDTAB
  0
TABLE
  2
LTYPE
  5
5
330
0
100
AcDbSymbolTable
 70
     3
  0
LTYPE
  5
12
330
5
100
AcDbSymbolTableRecord
100
AcDbLinetypeTableRecord
  2
BYBLOCK
 70
     0
  3

 72
    65
 73
     0
 40
0.0
  0
LTYPE
  5
13
330
5
100
AcDbSymbolTableRecord
100
AcDbLinetypeTableRecord
  2
BYLAYER
 70
     0
  3

 72
    65
 73
     0
 40
0.0
  0
LTYPE
  5
14
330
5
100
AcDbSymbolTableRecord
100
AcDbLinetypeTableRecord
  2
CONTINUOUS
 70
     0
  3
Solid line
 72
    65
 73
     0
 40
0.0
  0
LTYPE
  5
2E3
330
5
100
AcDbSymbolTableRecord
100
AcDbLinetypeTableRecord
  2
ACAD_ISO04W100
 70
     0
  3
____ . ____ . ____ . ____ . ____ . ____ . ____ 
 72
    65
 73
     4
 40
30.5
 49
24.0
 74
     0
 49
-3.0
 74
     0
 49
0.5
 74
     0
 49
-3.0
 74
     0
  0
LTYPE
  5
62D
330
5
100
AcDbSymbolTableRecord
100
AcDbLinetypeTableRecord
  2
ACAD_ISO05W100
 70
     0
  3
ISO Lang gestrichelt doppelpunktiert ____ .. __
 72
    65
 73
     6
 40
33.0
 49
24.0
 74
     0
 49
-3.0
 74
     0
 49
0.0
 74
     0
 49
-3.0
 74
     0
 49
0.0
 74
     0
 49
-3.0
 74
     0
  0
ENDTAB
  0
TABLE
  2
LAYER
  5
2
102
{ACAD_XDICTIONARY
360
502
102
}
330
0
100
AcDbSymbolTable
 70
     8
  0
LAYER
  5
E
102
{ACAD_XDICTIONARY
360
5D9
102
}
330
2
100
AcDbSymbolTableRecord
100
AcDbLayerTableRecord
  2
0
 70
     0
 62
     7
  6
CONTINUOUS
370
    -3
390
4A4
  0
LAYER
  5
21
102
{ACAD_XDICTIONARY
360
5DB
102
}
330
2
100
AcDbSymbolTableRecord
100
AcDbLayerTableRecord
  2
BZA45776
 70
     0
 62
     7
  6
CONTINUOUS
370
    -3
390
4A4
  0
LAYER
  5
76
102
{ACAD_XDICTIONARY
360
5DD
102
}
330
2
100
AcDbSymbolTableRecord
100
AcDbLayerTableRecord
  2
29
 70
     0
 62
     7
  6
CONTINUOUS
370
    -3
390
4A4
  0
LAYER
  5
78
102
{ACAD_XDICTIONARY
360
5DF
102
}
330
2
100
AcDbSymbolTableRecord
100
AcDbLayerTableRecord
  2
31
 70
     0
 62
     7
  6
CONTINUOUS
370
    -3
390
4A4
  0
LAYER
  5
141
102
{ACAD_XDICTIONARY
360
5E1
102
}
330
2
100
AcDbSymbolTableRecord
100
AcDbLayerTableRecord
  2
RAHMEN
 70
     0
 62
     7
  6
CONTINUOUS
370
    -3
390
4A4
  0
LAYER
  5
1BD
102
{ACAD_XDICTIONARY
360
5E3
102
}
330
2
100
AcDbSymbolTableRecord
100
AcDbLayerTableRecord
  2
2KOPF
 70
     0
 62
     7
  6
CONTINUOUS
370
    -3
390
4A4
  0
LAYER
  5
245
102
{ACAD_XDICTIONARY
360
5E5
102
}
330
2
100
AcDbSymbolTableRecord
100
AcDbLayerTableRecord
  2
PH_HILFSELEMENTE
 70
     0
 62
    -7
  6
CONTINUOUS
370
    -3
390
4A4
  0
LAYER
  5
2E4
330
2
100
AcDbSymbolTableRecord
100
AcDbLayerTableRecord
  2
DEFPOINTS
 70
     0
 62
     7
  6
CONTINUOUS
290
     0
370
    -3
390
4A4
  0
ENDTAB
  0
TABLE
  2
STYLE
  5
3
330
0
100
AcDbSymbolTable
 70
     1
  0
STYLE
  5
F
330
3
100
AcDbSymbolTableRecord
100
AcDbTextStyleTableRecord
  2
STANDARD
 70
     0
 40
0.0
 41
1.199999999999999
 50
0.0
 71
     0
 42
2.5
  3
isocp.shx
  4

  0
ENDTAB
  0
TABLE
  2
VIEW
  5
6
330
0
100
AcDbSymbolTable
 70
     0
  0
ENDTAB
  0
TABLE
  2
UCS
  5
7
330
0
100
AcDbSymbolTable
 70
     0
  0
ENDTAB
  0
TABLE
  2
APPID
  5
9
330
0
100
AcDbSymbolTable
 70
     8
  0
APPID
  5
10
330
9
100
AcDbSymbolTableRecord
100
AcDbRegAppTableRecord
  2
ACAD
 70
     0
  0
APPID
  5
220
330
9
100
AcDbSymbolTableRecord
100
AcDbRegAppTableRecord
  2
PHOENIX7010
 70
     0
  0
APPID
  5
501
330
9
100
AcDbSymbolTableRecord
100
AcDbRegAppTableRecord
  2
ACAD_PSEXT
 70
     0
  0
APPID
  5
626
330
9
100
AcDbSymbolTableRecord
100
AcDbRegAppTableRecord
  2
ACAD_EXEMPT_FROM_CAD_STANDARDS
 70
     0
  0
APPID
  5
62C
330
9
100
AcDbSymbolTableRecord
100
AcDbRegAppTableRecord
  2
AdeskUnderlayLayerOverrideData
 70
     0
  0
APPID
  5
6E8
330
9
100
AcDbSymbolTableRecord
100
AcDbRegAppTableRecord
  2
ACAD_MLEADERVER
 70
     0
  0
APPID
  5
9BB
330
9
100
AcDbSymbolTableRecord
100
AcDbRegAppTableRecord
  2
AcadAnnoPO
 70
     0
  0
APPID
  5
9ED
330
9
100
AcDbSymbolTableRecord
100
AcDbRegAppTableRecord
  2
ACAD_NAV_VCDISPLAY
 70
     0
  0
ENDTAB
  0
TABLE
  2
DIMSTYLE
  5
A
330
0
100
AcDbSymbolTable
 70
     4
100
AcDbDimStyleTable
 71
     1
340
1D
  0
DIMSTYLE
105
1D
330
A
100
AcDbSymbolTableRecord
100
AcDbDimStyleTableRecord
  2
STANDARD
 70
     0
340
F
  0
DIMSTYLE
105
227
330
A
100
AcDbSymbolTableRecord
100
AcDbDimStyleTableRecord
  2
PHOENIX
 70
     0
  4
"
 41
3.72
 42
0.0
 43
7.0
 44
1.5
 73
     0
 74
     0
 77
     1
 78
     8
140
3.5
141
0.0
143
0.0393700787401575
146
0.6666666666666666
147
2.0
172
     1
173
     1
176
     1
177
     1
178
     5
271
     2
272
     2
284
     8
288
     1
289
     0
340
F
341
221
343
221
344
221
  0
DIMSTYLE
105
228
330
A
100
AcDbSymbolTableRecord
100
AcDbDimStyleTableRecord
  2
PHOENIX$4
 70
     0
  4
"
 41
3.72
 42
0.0
 43
7.0
 44
1.5
 73
     0
 74
     0
 77
     1
 78
     8
140
3.5
141
0.0
143
0.0393700787401575
146
0.6666666666666666
147
2.0
173
     1
176
     1
177
     1
178
     5
271
     2
272
     2
281
     1
284
     8
288
     1
289
     0
340
F
341
221
343
221
344
221
  0
DIMSTYLE
105
4EF
330
A
100
AcDbSymbolTableRecord
100
AcDbDimStyleTableRecord
  2
ISO-25
 70
     0
 41
2.5
 42
0.625
 43
3.75
 44
1.25
 73
     0
 74
     0
 77
     1
 78
     8
140
2.5
141
2.5
143
0.03937007874016
147
0.625
171
     3
172
     1
271
     2
272
     2
274
     3
278
    44
283
     0
284
     8
340
F
  0
ENDTAB
  0
TABLE
  2
BLOCK_RECORD
  5
1
330
0
100
AcDbSymbolTable
 70
     2
  0
BLOCK_RECORD
  5
18
330
1
100
AcDbSymbolTableRecord
100
AcDbBlockTableRecord
  2
*MODEL_SPACE
340
4EB
  0
BLOCK_RECORD
  5
15
330
1
100
AcDbSymbolTableRecord
100
AcDbBlockTableRecord
  2
*PAPER_SPACE
340
4EC
  0
BLOCK_RECORD
  5
221
330
1
100
AcDbSymbolTableRecord
100
AcDbBlockTableRecord
  2
_OPEN15
340
0
  0
BLOCK_RECORD
  5
246
330
1
100
AcDbSymbolTableRecord
100
AcDbBlockTableRecord
  2
PH_GRPBLK
340
0
102
{BLKREFS
331
4FD
331
50B
331
50E
331
546
331
76D
102
}
  0
ENDTAB
  0
ENDSEC
  0
SECTION
  2
BLOCKS
  0
BLOCK
  5
19
330
18
100
AcDbEntity
  8
0
100
AcDbBlockBegin
  2
*MODEL_SPACE
 70
     0
 10
0.0
 20
0.0
 30
0.0
  3
*MODEL_SPACE
  1

  0
ENDBLK
  5
1A
330
18
100
AcDbEntity
  8
0
100
AcDbBlockEnd
  0
BLOCK
  5
16
330
15
100
AcDbEntity
 67
     1
  8
0
100
AcDbBlockBegin
  2
*PAPER_SPACE
 70
     0
 10
0.0
 20
0.0
 30
0.0
  3
*PAPER_SPACE
  1

  0
ENDBLK
  5
17
330
15
100
AcDbEntity
 67
     1
  8
0
100
AcDbBlockEnd
  0
BLOCK
  5
225
330
221
100
AcDbEntity
  8
0
100
AcDbBlockBegin
  2
_OPEN15
 70
     0
 10
1.0
 20
0.0
 30
0.0
  3
_OPEN15
  1

  0
LINE
  5
222
330
221
100
AcDbEntity
  8
0
  6
ByBlock
 62
     0
100
AcDbLine
 10
0.0
 20
0.0
 30
0.0
 11
1.0
 21
0.0
 31
0.0
  0
LINE
  5
223
330
221
100
AcDbEntity
  8
0
  6
ByBlock
 62
     0
100
AcDbLine
 10
1.0
 20
0.0
 30
0.0
 11
0.0
 21
0.1316524975873958
 31
0.0
  0
LINE
  5
224
330
221
100
AcDbEntity
  8
0
  6
ByBlock
 62
     0
100
AcDbLine
 10
1.0
 20
0.0
 30
0.0
 11
0.0
 21
-0.1316524975873958
 31
0.0
  0
ENDBLK
  5
226
330
221
100
AcDbEntity
  8
0
100
AcDbBlockEnd
  0
BLOCK
  5
248
330
246
100
AcDbEntity
  8
0
 62
     7
100
AcDbBlockBegin
  2
PH_GRPBLK
 70
     0
 10
0.0
 20
0.0
 30
0.0
  3
PH_GRPBLK
  1

  0
POINT
  5
247
330
246
100
AcDbEntity
  8
DEFPOINTS
  6
Continuous
 62
     0
100
AcDbPoint
 10
0.0
 20
0.0
 30
0.0
  0
ENDBLK
  5
249
330
246
100
AcDbEntity
  8
0
 62
     7
100
AcDbBlockEnd
  0
ENDSEC
  0
SECTION
  2
ENTITIES
  0
LINE
  5
22
330
18
100
AcDbEntity
  8
BZA45776
  6
Continuous
 62
     1
100
AcDbLine
 10
72.23783630447815
 20
198.3837378644554
 30
0.0
 11
72.23783630447815
 21
218.8765967511741
 31
0.0
1001
PHOENIX7010
1002
{
1070
    41
1040
0.5
1002
}
  0
TEXT
  5
23
330
18
100
AcDbEntity
  8
BZA45776
 62
     5
100
AcDbText
 10
73.83109299740386
 20
217.8110273160851
 30
0.0
 40
3.5
  1
 2 
100
AcDbText
1001
PHOENIX7010
1002
{
1070
    41
1040
0.5
1002
}
  0
TEXT
  5
24
330
18
100
AcDbEntity
  8
BZA45776
 62
     5
100
AcDbText
 10
88.74100510677886
 20
217.7284162321007
 30
0.0
 40
3.5
  1
1.2
100
AcDbText
1001
PHOENIX7010
1002
{
1070
    41
1040
0.5
1002
}
  0
TEXT
  5
25
330
18
100
AcDbEntity
  8
BZA45776
 62
     5
100
AcDbText
 10
78.37618577084136
 20
227.9997032347906
 30
0.0
 40
3.5
  1
5.2 
 72
     1
 11
82.05118577084135
 21
227.9997032347906
 31
0.0
100
AcDbText
1001
PHOENIX7010
1002
{
1070
    41
1040
0.5
1002
}
  0
TEXT
  5
26
330
18
100
AcDbEntity
  8
BZA45776
 62
     5
100
AcDbText
 10
86.41690907138261
 20
190.3812931370731
 30
0.0
 40
3.5
  1
 9  
 72
     1
 11
89.7480241497476
 21
190.3812931370731
 31
0.0
100
AcDbText
1001
PHOENIX7010
1002
{
1070
    41
1040
0.5
1002
}
  0
TEXT
  5
27
330
18
100
AcDbEntity
  8
BZA45776
 62
     5
100
AcDbText
 10
94.42282883724761
 20
227.7731550016319
 30
0.0
 40
3.5
  1
2.2
100
AcDbText
1001
PHOENIX7010
1002
{
1070
    41
1040
0.5
1002
}
  0
TEXT
  5
28
330
18
100
AcDbEntity
  8
BZA45776
 62
     5
100
AcDbText
 10
93.16432053646636
 20
237.7805097379601
 30
0.0
 40
3.5
  1
12.8
 72
     1
 11
97.01432053646636
 21
237.7805097379601
 31
0.0
100
AcDbText
1001
PHOENIX7010
1002
{
1070
    41
1040
0.5
1002
}
  0
LINE
  5
29
330
18
100
AcDbEntity
  8
BZA45776
 62
     1
100
AcDbLine
 10
123.2377142341656
 20
180.9973548078147
 30
0.0
 11
123.2377142341656
 21
202.9304297589866
 31
0.0
1001
PHOENIX7010
1002
{
1070
    41
1040
0.5
1002
}
  0
TEXT
  5
2A
330
18
100
AcDbEntity
  8
BZA45776
 62
     5
100
AcDbText
 10
129.4612809856851
 20
217.951315901838
 30
0.0
 40
3.5
  1
M 4
100
AcDbText
1001
PHOENIX7010
1002
{
1070
    41
1040
0.5
1002
}
  0
TEXT
  5
2B
330
18
100
AcDbEntity
  8
BZA45776
 62
     5
100
AcDbText
 10
168.8522111614663
 20
217.7338788785851
 30
0.0
 40
3.5
  1
2  
100
AcDbText
1001
PHOENIX7010
1002
{
1070
    41
1040
0.5
1002
}
  0
LINE
  5
2C
330
18
100
AcDbEntity
  8
BZA45776
 62
     1
100
AcDbLine
 10
115.5649847419781
 20
186.0766699933616
 30
0.0
 11
136.5474066169781
 21
186.0766699933616
 31
0.0
1001
PHOENIX7010
1002
{
1070
    41
1040
0.5
1002
}
  0
LINE
  5
2E
330
18
100
AcDbEntity
  8
BZA45776
  6
Continuous
 62
     1
100
AcDbLine
 10
62.23783630447815
 20
180.0752661847679
 30
0.0
 11
62.23783630447815
 21
194.2766822003929
 31
0.0
1001
PHOENIX7010
1002
{
1070
    41
1040
0.5
1002
}
  0
LINE
  5
2F
330
18
100
AcDbEntity
  8
BZA45776
  6
Continuous
 62
     1
100
AcDbLine
 10
79.76774353104065
 20
180.0752661847679
 30
0.0
 11
60.23783630447815
 21
180.0752661847679
 31
0.0
1001
PHOENIX7010
1002
{
1070
    41
1040
0.5
1002
}
  0
LINE
  5
30
330
18
100
AcDbEntity
  8
BZA45776
  6
Continuous
 62
     1
100
AcDbLine
 10
73.43790954666565
 20
194.2766822003929
 30
0.0
 11
60.23783630447815
 21
194.2766822003929
 31
0.0
1001
PHOENIX7010
1002
{
1070
    41
1040
0.5
1002
}
  0
LINE
  5
31
330
18
100
AcDbEntity
  8
BZA45776
  6
Continuous
 62
     1
100
AcDbLine
 10
62.23783630447815
 20
180.0752661847679
 30
0.0
 11
61.7809881599469
 21
183.5453284406272
 31
0.0
1001
PHOENIX7010
1002
{
1070
    41
1040
0.5
1002
}
  0
LINE
  5
32
330
18
100
AcDbEntity
  8
BZA45776
  6
Continuous
 62
     1
100
AcDbLine
 10
62.23783630447815
 20
180.0752661847679
 30
0.0
 11
62.6946844490094
 21
183.5453284406272
 31
0.0
1001
PHOENIX7010
1002
{
1070
    41
1040
0.5
1002
}
  0
LINE
  5
33
330
18
100
AcDbEntity
  8
BZA45776
  6
Continuous
 62
     1
100
AcDbLine
 10
62.23783630447815
 20
194.2766822003929
 30
0.0
 11
61.7809881599469
 21
190.8066199445335
 31
0.0
1001
PHOENIX7010
1002
{
1070
    41
1040
0.5
1002
}
  0
LINE
  5
34
330
18
100
AcDbEntity
  8
BZA45776
  6
Continuous
 62
     1
100
AcDbLine
 10
62.23783630447815
 20
194.2766822003929
 30
0.0
 11
62.6946844490094
 21
190.8066199445335
 31
0.0
1001
PHOENIX7010
1002
{
1070
    41
1040
0.5
1002
}
  0
TEXT
  5
35
330
18
100
AcDbEntity
  8
BZA45776
 62
     5
100
AcDbText
 10
61.23783630447815
 20
182.6274131804925
 30
0.0
 40
3.5
  1
 3.6 
 50
90.0
 72
     1
 11
61.23783630447815
 21
187.0024131804925
 31
0.0
100
AcDbText
1001
PHOENIX7010
1002
{
1070
    41
1040
0.5
1002
}
  0
LINE
  5
37
330
18
100
AcDbEntity
  8
BZA45776
  6
Continuous
 62
     1
100
AcDbLine
 10
52.23783630447815
 20
176.6766455792991
 30
0.0
 11
52.23783630447815
 21
197.6766455792991
 31
0.0
1001
PHOENIX7010
1002
{
1070
    41
1040
0.5
1002
}
  0
LINE
  5
38
330
18
100
AcDbEntity
  8
BZA45776
  6
Continuous
 62
     1
100
AcDbLine
 10
80.23771423416565
 20
176.6766455792991
 30
0.0
 11
50.23783630447815
 21
176.6766455792991
 31
0.0
1001
PHOENIX7010
1002
{
1070
    41
1040
0.5
1002
}
  0
LINE
  5
39
330
18
100
AcDbEntity
  8
BZA45776
  6
Continuous
 62
     1
100
AcDbLine
 10
80.23783630447814
 20
197.6766455792991
 30
0.0
 11
50.23783630447815
 21
197.6766455792991
 31
0.0
1001
PHOENIX7010
1002
{
1070
    41
1040
0.5
1002
}
  0
LINE
  5
3A
330
18
100
AcDbEntity
  8
BZA45776
  6
Continuous
 62
     1
100
AcDbLine
 10
52.23783630447815
 20
176.6766455792991
 30
0.0
 11
51.7809881599469
 21
180.1467078351585
 31
0.0
1001
PHOENIX7010
1002
{
1070
    41
1040
0.5
1002
}
  0
LINE
  5
3B
330
18
100
AcDbEntity
  8
BZA45776
  6
Continuous
 62
     1
100
AcDbLine
 10
52.23783630447815
 20
176.6766455792991
 30
0.0
 11
52.6946844490094
 21
180.1467078351585
 31
0.0
1001
PHOENIX7010
1002
{
1070
    41
1040
0.5
1002
}
  0
LINE
  5
3C
330
18
100
AcDbEntity
  8
BZA45776
  6
Continuous
 62
     1
100
AcDbLine
 10
52.23783630447815
 20
197.6766455792991
 30
0.0
 11
51.7809881599469
 21
194.2065833234397
 31
0.0
1001
PHOENIX7010
1002
{
1070
    41
1040
0.5
1002
}
  0
LINE
  5
3D
330
18
100
AcDbEntity
  8
BZA45776
  6
Continuous
 62
     1
100
AcDbLine
 10
52.23783630447815
 20
197.6766455792991
 30
0.0
 11
52.6946844490094
 21
194.2065833234397
 31
0.0
1001
PHOENIX7010
1002
{
1070
    41
1040
0.5
1002
}
  0
TEXT
  5
3E
330
18
100
AcDbEntity
  8
BZA45776
 62
     5
100
AcDbText
 10
51.23783630447815
 20
182.6567623852029
 30
0.0
 40
3.5
  1
 5.3 
 50
90.0
 72
     1
 11
51.23783630447815
 21
187.0317623852029
 31
0.0
100
AcDbText
1001
PHOENIX7010
1002
{
1070
    41
1040
0.5
1002
}
  0
LINE
  5
40
330
18
100
AcDbEntity
  8
BZA45776
  6
Continuous
 62
     1
100
AcDbLine
 10
52.23783630447815
 20
166.8766577863304
 30
0.0
 11
52.23783630447815
 21
176.6766455792991
 31
0.0
1001
PHOENIX7010
1002
{
1070
    41
1040
0.5
1002
}
  0
LINE
  5
41
330
18
100
AcDbEntity
  8
BZA45776
  6
Continuous
 62
     1
100
AcDbLine
 10
52.23783630447815
 20
166.8766577863304
 30
0.0
 11
51.7809881599469
 21
170.3467200421897
 31
0.0
1001
PHOENIX7010
1002
{
1070
    41
1040
0.5
1002
}
  0
LINE
  5
42
330
18
100
AcDbEntity
  8
BZA45776
  6
Continuous
 62
     1
100
AcDbLine
 10
52.23783630447815
 20
166.8766577863304
 30
0.0
 11
52.6946844490094
 21
170.3467200421897
 31
0.0
1001
PHOENIX7010
1002
{
1070
    41
1040
0.5
1002
}
  0
LINE
  5
43
330
18
100
AcDbEntity
  8
BZA45776
  6
Continuous
 62
     1
100
AcDbLine
 10
52.23783630447815
 20
176.6766455792991
 30
0.0
 11
51.7809881599469
 21
173.2065833234397
 31
0.0
1001
PHOENIX7010
1002
{
1070
    41
1040
0.5
1002
}
  0
LINE
  5
44
330
18
100
AcDbEntity
  8
BZA45776
  6
Continuous
 62
     1
100
AcDbLine
 10
52.23783630447815
 20
176.6766455792991
 30
0.0
 11
52.6946844490094
 21
173.2065833234397
 31
0.0
1001
PHOENIX7010
1002
{
1070
    41
1040
0.5
1002
}
  0
TEXT
  5
45
330
18
100
AcDbEntity
  8
BZA45776
 62
     5
100
AcDbText
 10
51.23783630447815
 20
167.3456464414744
 30
0.0
 40
3.5
  1
 2.5 
 50
90.0
 72
     1
 11
51.23783630447815
 21
171.7206464414744
 31
0.0
100
AcDbText
1001
PHOENIX7010
1002
{
1070
    41
1040
0.5
1002
}
  0
LINE
  5
46
330
18
100
AcDbEntity
  8
BZA45776
  6
Continuous
 62
     1
100
AcDbLine
 10
77.43790954666565
 20
166.8767035626975
 30
0.0
 11
50.23783630447815
 21
166.8766577863304
 31
0.0
1001
PHOENIX7010
1002
{
1070
    41
1040
0.5
1002
}
  0
LINE
  5
48
330
18
100
AcDbEntity
  8
BZA45776
  6
Continuous
 62
     1
100
AcDbLine
 10
42.23785156326721
 20
166.8766577863304
 30
0.0
 11
42.23785156326721
 21
206.8765967511741
 31
0.0
1001
PHOENIX7010
1002
{
1070
    41
1040
0.5
1002
}
  0
LINE
  5
49
330
18
100
AcDbEntity
  8
BZA45776
  6
Continuous
 62
     1
100
AcDbLine
 10
52.23785156326721
 20
166.8766577863304
 30
0.0
 11
40.23785156326721
 21
166.8766577863304
 31
0.0
1001
PHOENIX7010
1002
{
1070
    41
1040
0.5
1002
}
  0
LINE
  5
4A
330
18
100
AcDbEntity
  8
BZA45776
  6
Continuous
 62
     1
100
AcDbLine
 10
73.43778747635315
 20
206.8765967511741
 30
0.0
 11
40.23783630447815
 21
206.8765967511741
 31
0.0
1001
PHOENIX7010
1002
{
1070
    41
1040
0.5
1002
}
  0
LINE
  5
4B
330
18
100
AcDbEntity
  8
BZA45776
  6
Continuous
 62
     1
100
AcDbLine
 10
42.23785156326721
 20
166.8766577863304
 30
0.0
 11
41.78100341873596
 21
170.3467200421897
 31
0.0
1001
PHOENIX7010
1002
{
1070
    41
1040
0.5
1002
}
  0
LINE
  5
4C
330
18
100
AcDbEntity
  8
BZA45776
  6
Continuous
 62
     1
100
AcDbLine
 10
42.23785156326721
 20
166.8766577863304
 30
0.0
 11
42.69469970779846
 21
170.3467200421897
 31
0.0
1001
PHOENIX7010
1002
{
1070
    41
1040
0.5
1002
}
  0
LINE
  5
4D
330
18
100
AcDbEntity
  8
BZA45776
  6
Continuous
 62
     1
100
AcDbLine
 10
42.23785156326721
 20
206.8765967511741
 30
0.0
 11
41.78100341873596
 21
203.4065344953148
 31
0.0
1001
PHOENIX7010
1002
{
1070
    41
1040
0.5
1002
}
  0
LINE
  5
4E
330
18
100
AcDbEntity
  8
BZA45776
  6
Continuous
 62
     1
100
AcDbLine
 10
42.23785156326721
 20
206.8765967511741
 30
0.0
 11
42.69469970779846
 21
203.4065344953148
 31
0.0
1001
PHOENIX7010
1002
{
1070
    41
1040
0.5
1002
}
  0
TEXT
  5
4F
330
18
100
AcDbEntity
  8
BZA45776
 62
     5
100
AcDbText
 10
41.23785156326721
 20
183.3739629159748
 30
0.0
 40
3.5
  1
 10 
 50
90.0
 72
     1
 11
41.23785156326721
 21
186.8739629159748
 31
0.0
100
AcDbText
1001
PHOENIX7010
1002
{
1070
    41
1040
0.5
1002
}
  0
LINE
  5
51
330
18
100
AcDbEntity
  8
BZA45776
  6
Continuous
 62
     1
100
AcDbLine
 10
80.23783630447814
 20
197.6766455792991
 30
0.0
 11
80.23783630447814
 21
218.8765967511741
 31
0.0
1001
PHOENIX7010
1002
{
1070
    41
1040
0.5
1002
}
  0
LINE
  5
52
330
18
100
AcDbEntity
  8
BZA45776
  6
Continuous
 62
     1
100
AcDbLine
 10
85.03776306229065
 20
197.6766455792991
 30
0.0
 11
85.03776306229065
 21
218.8765967511741
 31
0.0
1001
PHOENIX7010
1002
{
1070
    41
1040
0.5
1002
}
  0
LINE
  5
53
330
18
100
AcDbEntity
  8
BZA45776
  6
Continuous
 62
     1
100
AcDbLine
 10
80.23783630447814
 20
216.8765967511741
 30
0.0
 11
76.76777404861877
 21
217.3334448957054
 31
0.0
1001
PHOENIX7010
1002
{
1070
    41
1040
0.5
1002
}
  0
LINE
  5
54
330
18
100
AcDbEntity
  8
BZA45776
  6
Continuous
 62
     1
100
AcDbLine
 10
80.23783630447814
 20
216.8765967511741
 30
0.0
 11
76.76777404861877
 21
216.4197486066429
 31
0.0
1001
PHOENIX7010
1002
{
1070
    41
1040
0.5
1002
}
  0
LINE
  5
55
330
18
100
AcDbEntity
  8
BZA45776
  6
Continuous
 62
     1
100
AcDbLine
 10
85.03776306229065
 20
216.8765967511741
 30
0.0
 11
88.50782531815003
 21
217.3334448957054
 31
0.0
1001
PHOENIX7010
1002
{
1070
    41
1040
0.5
1002
}
  0
LINE
  5
56
330
18
100
AcDbEntity
  8
BZA45776
  6
Continuous
 62
     1
100
AcDbLine
 10
85.03776306229065
 20
216.8765967511741
 30
0.0
 11
88.50782531815003
 21
216.4197486066429
 31
0.0
1001
PHOENIX7010
1002
{
1070
    41
1040
0.5
1002
}
  0
LINE
  5
57
330
18
100
AcDbEntity
  8
BZA45776
  6
Continuous
 62
     1
100
AcDbLine
 10
80.23783630447814
 20
216.8765967511741
 30
0.0
 11
95.18449157791565
 21
216.8765967511741
 31
0.0
1001
PHOENIX7010
1002
{
1070
    41
1040
0.5
1002
}
  0
LINE
  5
59
330
18
100
AcDbEntity
  8
BZA45776
  6
Continuous
 62
     1
100
AcDbLine
 10
72.23786682205627
 20
216.8765967511741
 30
0.0
 11
75.70792907791565
 21
217.3334448957054
 31
0.0
1001
PHOENIX7010
1002
{
1070
    41
1040
0.5
1002
}
  0
LINE
  5
5A
330
18
100
AcDbEntity
  8
BZA45776
  6
Continuous
 62
     1
100
AcDbLine
 10
72.23786682205627
 20
216.8765967511741
 30
0.0
 11
80.23786682205628
 21
216.8765967511741
 31
0.0
1001
PHOENIX7010
1002
{
1070
    41
1040
0.5
1002
}
  0
LINE
  5
5B
330
18
100
AcDbEntity
  8
BZA45776
  6
Continuous
 62
     1
100
AcDbLine
 10
72.23786682205627
 20
216.8765967511741
 30
0.0
 11
75.70792907791565
 21
216.4197486066429
 31
0.0
1001
PHOENIX7010
1002
{
1070
    41
1040
0.5
1002
}
  0
LINE
  5
5D
330
18
100
AcDbEntity
  8
BZA45776
  6
Continuous
 62
     1
100
AcDbLine
 10
72.2378973396344
 20
226.8765967511741
 30
0.0
 11
93.0379461677594
 21
226.8765967511741
 31
0.0
1001
PHOENIX7010
1002
{
1070
    41
1040
0.5
1002
}
  0
LINE
  5
5E
330
18
100
AcDbEntity
  8
BZA45776
  6
Continuous
 62
     1
100
AcDbLine
 10
72.2378973396344
 20
216.8765967511741
 30
0.0
 11
72.2378973396344
 21
228.8765967511741
 31
0.0
1001
PHOENIX7010
1002
{
1070
    41
1040
0.5
1002
}
  0
LINE
  5
5F
330
18
100
AcDbEntity
  8
BZA45776
  6
Continuous
 62
     1
100
AcDbLine
 10
72.2378973396344
 20
226.8765967511741
 30
0.0
 11
75.70792907791565
 21
227.3334448957054
 31
0.0
1001
PHOENIX7010
1002
{
1070
    41
1040
0.5
1002
}
  0
LINE
  5
60
330
18
100
AcDbEntity
  8
BZA45776
  6
Continuous
 62
     1
100
AcDbLine
 10
72.2378973396344
 20
226.8765967511741
 30
0.0
 11
75.70792907791565
 21
226.4197486066429
 31
0.0
1001
PHOENIX7010
1002
{
1070
    41
1040
0.5
1002
}
  0
LINE
  5
61
330
18
100
AcDbEntity
  8
BZA45776
  6
Continuous
 62
     1
100
AcDbLine
 10
93.0379461677594
 20
226.8765967511741
 30
0.0
 11
89.56791442947816
 21
227.3334448957054
 31
0.0
1001
PHOENIX7010
1002
{
1070
    41
1040
0.5
1002
}
  0
LINE
  5
62
330
18
100
AcDbEntity
  8
BZA45776
  6
Continuous
 62
     1
100
AcDbLine
 10
93.0379461677594
 20
226.8765967511741
 30
0.0
 11
89.56791442947816
 21
226.4197486066429
 31
0.0
1001
PHOENIX7010
1002
{
1070
    41
1040
0.5
1002
}
  0
LINE
  5
63
330
18
100
AcDbEntity
  8
BZA45776
  6
Continuous
 62
     1
100
AcDbLine
 10
93.0379461677594
 20
197.6766455792991
 30
0.0
 11
93.0379461677594
 21
210.6408789777366
 31
0.0
1001
PHOENIX7010
1002
{
1070
    41
1040
0.5
1002
}
  0
LINE
  5
64
330
18
100
AcDbEntity
  8
BZA45776
  6
Continuous
 62
     1
100
AcDbLine
 10
93.0379461677594
 20
218.8007300519554
 30
0.0
 11
93.0379461677594
 21
228.8765967511741
 31
0.0
1001
PHOENIX7010
1002
{
1070
    41
1040
0.5
1002
}
  0
LINE
  5
66
330
18
100
AcDbEntity
  8
BZA45776
  6
Continuous
 62
     1
100
AcDbLine
 10
72.2378973396344
 20
236.8765967511741
 30
0.0
 11
123.2377752693219
 21
236.8765967511741
 31
0.0
1001
PHOENIX7010
1002
{
1070
    41
1040
0.5
1002
}
  0
LINE
  5
67
330
18
100
AcDbEntity
  8
BZA45776
  6
Continuous
 62
     1
100
AcDbLine
 10
72.2378973396344
 20
226.8765967511741
 30
0.0
 11
72.2378973396344
 21
238.8765967511741
 31
0.0
1001
PHOENIX7010
1002
{
1070
    41
1040
0.5
1002
}
  0
LINE
  5
68
330
18
100
AcDbEntity
  8
BZA45776
  6
Continuous
 62
     1
100
AcDbLine
 10
72.2378973396344
 20
236.8765967511741
 30
0.0
 11
75.70792907791565
 21
237.3334448957054
 31
0.0
1001
PHOENIX7010
1002
{
1070
    41
1040
0.5
1002
}
  0
LINE
  5
69
330
18
100
AcDbEntity
  8
BZA45776
  6
Continuous
 62
     1
100
AcDbLine
 10
72.2378973396344
 20
236.8765967511741
 30
0.0
 11
75.70792907791565
 21
236.4197486066429
 31
0.0
1001
PHOENIX7010
1002
{
1070
    41
1040
0.5
1002
}
  0
LINE
  5
6A
330
18
100
AcDbEntity
  8
BZA45776
  6
Continuous
 62
     1
100
AcDbLine
 10
123.2377752693219
 20
236.8765967511741
 30
0.0
 11
119.7677435310406
 21
237.3334448957054
 31
0.0
1001
PHOENIX7010
1002
{
1070
    41
1040
0.5
1002
}
  0
LINE
  5
6B
330
18
100
AcDbEntity
  8
BZA45776
  6
Continuous
 62
     1
100
AcDbLine
 10
123.2377752693219
 20
236.8765967511741
 30
0.0
 11
119.7677435310406
 21
236.4197486066429
 31
0.0
1001
PHOENIX7010
1002
{
1070
    41
1040
0.5
1002
}
  0
LINE
  5
6C
330
18
100
AcDbEntity
  8
BZA45776
  6
Continuous
 62
     1
100
AcDbLine
 10
123.2377752693219
 20
202.9304602765648
 30
0.0
 11
123.2377752693219
 21
238.8765967511741
 31
0.0
1001
PHOENIX7010
1002
{
1070
    41
1040
0.5
1002
}
  0
LINE
  5
6E
330
18
100
AcDbEntity
  8
BZA45776
  6
Continuous
 62
     1
100
AcDbLine
 10
72.23783630447815
 20
189.1322119855491
 30
0.0
 11
108.2378363044781
 21
189.1322119855491
 31
0.0
1001
PHOENIX7010
1002
{
1070
    41
1040
0.5
1002
}
  0
LINE
  5
6F
330
18
100
AcDbEntity
  8
BZA45776
  6
Continuous
 62
     1
100
AcDbLine
 10
72.23783630447815
 20
189.1322119855491
 30
0.0
 11
75.70792907791565
 21
189.5890601300804
 31
0.0
1001
PHOENIX7010
1002
{
1070
    41
1040
0.5
1002
}
  0
LINE
  5
70
330
18
100
AcDbEntity
  8
BZA45776
  6
Continuous
 62
     1
100
AcDbLine
 10
72.23783630447815
 20
189.1322119855491
 30
0.0
 11
75.70792907791565
 21
188.6753638410178
 31
0.0
1001
PHOENIX7010
1002
{
1070
    41
1040
0.5
1002
}
  0
LINE
  5
71
330
18
100
AcDbEntity
  8
BZA45776
  6
Continuous
 62
     1
100
AcDbLine
 10
72.23783630447815
 20
196.0318091535178
 30
0.0
 11
72.23783630447815
 21
187.1322119855491
 31
0.0
1001
PHOENIX7010
1002
{
1070
    41
1040
0.5
1002
}
  0
LINE
  5
72
330
18
100
AcDbEntity
  8
BZA45776
  6
Continuous
 62
     1
100
AcDbLine
 10
108.2378363044781
 20
187.2766516828147
 30
0.0
 11
108.2378363044781
 21
191.1322119855491
 31
0.0
1001
PHOENIX7010
1002
{
1070
    41
1040
0.5
1002
}
  0
LINE
  5
73
330
18
100
AcDbEntity
  8
BZA45776
  6
Continuous
 62
     1
100
AcDbLine
 10
108.2378363044781
 20
189.1322119855491
 30
0.0
 11
104.7677740486187
 21
189.5890601300804
 31
0.0
1001
PHOENIX7010
1002
{
1070
    41
1040
0.5
1002
}
  0
LINE
  5
74
330
18
100
AcDbEntity
  8
BZA45776
  6
Continuous
 62
     1
100
AcDbLine
 10
108.2378363044781
 20
189.1322119855491
 30
0.0
 11
104.7677740486187
 21
188.6753638410178
 31
0.0
1001
PHOENIX7010
1002
{
1070
    41
1040
0.5
1002
}
  0
LINE
  5
77
330
18
100
AcDbEntity
  8
29
  6
Continuous
 62
     7
100
AcDbLine
 10
72.23783630447815
 20
205.6766455792991
 30
0.0
 11
72.23783630447815
 21
195.4766944074241
 31
0.0
1001
PHOENIX7010
1002
{
1070
    41
1040
0.5
1002
}
  0
ARC
  5
79
330
18
100
AcDbEntity
  8
31
  6
Continuous
 62
     7
100
AcDbCircle
 10
71.83781189041565
 20
177.8080847882835
 30
0.0
 40
0.8000040054321289
100
AcDbArc
 50
314.9996360615198
 51
359.9996436909135
1001
PHOENIX7010
1002
{
1070
    41
1040
0.5
1002
}
  0
ARC
  5
7A
330
18
100
AcDbEntity
  8
31
  6
Continuous
 62
     7
100
AcDbCircle
 10
76.30656189041565
 20
178.076761546096
 30
0.0
 40
0.8000440001487731
100
AcDbArc
 50
269.9988555908203
 51
314.9988784790032
1001
PHOENIX7010
1002
{
1070
    41
1040
0.5
1002
}
  0
ARC
  5
7B
330
18
100
AcDbEntity
  8
31
  6
Continuous
 62
     7
100
AcDbCircle
 10
79.76774353104065
 20
179.2753394269554
 30
0.0
 40
0.799996018409729
100
AcDbArc
 50
90.00000000000003
 51
135.0003356933582
1001
PHOENIX7010
1002
{
1070
    41
1040
0.5
1002
}
  0
ARC
  5
7C
330
18
100
AcDbEntity
  8
31
  6
Continuous
 62
     7
100
AcDbCircle
 10
109.6376165779156
 20
206.0767157697288
 30
0.0
 40
0.8000000119209289
100
AcDbArc
 50
0.0
 51
90.00000000000003
1001
PHOENIX7010
1002
{
1070
    41
1040
0.5
1002
}
  0
ARC
  5
7D
330
18
100
AcDbEntity
  8
31
  6
Continuous
 62
     7
100
AcDbCircle
 10
105.0378851326031
 20
183.2766974591819
 30
0.0
 40
3.200000047683715
100
AcDbArc
 50
269.9999923706055
 51
0.0
1001
PHOENIX7010
1002
{
1070
    41
1040
0.5
1002
}
  0
ARC
  5
7E
330
18
100
AcDbEntity
  8
31
  6
Continuous
 62
     7
100
AcDbCircle
 10
105.0378851326031
 20
191.0767157697288
 30
0.0
 40
3.200000047683715
100
AcDbArc
 50
0.0
 51
90.00000000000003
1001
PHOENIX7010
1002
{
1070
    41
1040
0.5
1002
}
  0
ARC
  5
7F
330
18
100
AcDbEntity
  8
31
  6
Continuous
 62
     7
100
AcDbCircle
 10
102.4379095466656
 20
169.6766913556663
 30
0.0
 40
0.8000000119209289
100
AcDbArc
 50
0.0
 51
90.00000000000003
1001
PHOENIX7010
1002
{
1070
    41
1040
0.5
1002
}
  0
ARC
  5
80
330
18
100
AcDbEntity
  8
31
  6
Continuous
 62
     7
100
AcDbCircle
 10
100.0378851326031
 20
169.6766913556663
 30
0.0
 40
0.8000040054321289
100
AcDbArc
 50
90.00000000000003
 51
165.5223846435545
1001
PHOENIX7010
1002
{
1070
    41
1040
0.5
1002
}
  0
ARC
  5
81
330
18
100
AcDbEntity
  8
31
  6
Continuous
 62
     7
100
AcDbCircle
 10
98.48869079666565
 20
170.0767310285178
 30
0.0
 40
0.8000040054321289
100
AcDbArc
 50
269.9999914169311
 51
345.5223760604859
1001
PHOENIX7010
1002
{
1070
    41
1040
0.5
1002
}
  0
ARC
  5
82
330
18
100
AcDbEntity
  8
31
  6
Continuous
 62
     7
100
AcDbCircle
 10
87.18717712479065
 20
170.0767310285178
 30
0.0
 40
0.8000040054321289
100
AcDbArc
 50
194.4776306152333
 51
269.9999923706055
1001
PHOENIX7010
1002
{
1070
    41
1040
0.5
1002
}
  0
ARC
  5
83
330
18
100
AcDbEntity
  8
31
  6
Continuous
 62
     7
100
AcDbCircle
 10
85.63786071854066
 20
169.6767066144554
 30
0.0
 40
0.8000040054321289
100
AcDbArc
 50
14.4776306152333
 51
90.00000000000003
1001
PHOENIX7010
1002
{
1070
    41
1040
0.5
1002
}
  0
ARC
  5
84
330
18
100
AcDbEntity
  8
31
  6
Continuous
 62
     7
100
AcDbCircle
 10
83.23783630447815
 20
169.6767066144554
 30
0.0
 40
0.8000000119209289
100
AcDbArc
 50
90.00000000000003
 51
180.0
1001
PHOENIX7010
1002
{
1070
    41
1040
0.5
1002
}
  0
ARC
  5
85
330
18
100
AcDbEntity
  8
31
  6
Continuous
 62
     7
100
AcDbCircle
 10
77.43790954666565
 20
167.6767066144554
 30
0.0
 40
0.8000000119209289
100
AcDbArc
 50
180.0
 51
269.9999923706055
1001
PHOENIX7010
1002
{
1070
    41
1040
0.5
1002
}
  0
ARC
  5
86
330
18
100
AcDbEntity
  8
31
  6
Continuous
 62
     7
100
AcDbCircle
 10
75.83781189041565
 20
168.8767188214866
 30
0.0
 40
0.8000000119209289
100
AcDbArc
 50
0.0
 51
90.00000000000003
1001
PHOENIX7010
1002
{
1070
    41
1040
0.5
1002
}
  0
ARC
  5
87
330
18
100
AcDbEntity
  8
31
  6
Continuous
 62
     7
100
AcDbCircle
 10
75.43790954666565
 20
168.8767188214866
 30
0.0
 40
0.8000000119209289
100
AcDbArc
 50
90.00000000000003
 51
180.0
1001
PHOENIX7010
1002
{
1070
    41
1040
0.5
1002
}
  0
ARC
  5
88
330
18
100
AcDbEntity
  8
31
  6
Continuous
 62
     7
100
AcDbCircle
 10
73.83781189041565
 20
168.4766944074241
 30
0.0
 40
0.8000000119209289
100
AcDbArc
 50
269.9999923706055
 51
0.0
1001
PHOENIX7010
1002
{
1070
    41
1040
0.5
1002
}
  0
ARC
  5
89
330
18
100
AcDbEntity
  8
31
  6
Continuous
 62
     7
100
AcDbCircle
 10
73.43790954666565
 20
168.4766944074241
 30
0.0
 40
0.8000000119209289
100
AcDbArc
 50
180.0
 51
269.9999923706055
1001
PHOENIX7010
1002
{
1070
    41
1040
0.5
1002
}
  0
ARC
  5
8A
330
18
100
AcDbEntity
  8
31
  6
Continuous
 62
     7
100
AcDbCircle
 10
73.43790954666565
 20
178.476908030471
 30
0.0
 40
0.8000000119209289
100
AcDbArc
 50
90.00000000000003
 51
180.0
1001
PHOENIX7010
1002
{
1070
    41
1040
0.5
1002
}
  0
ARC
  5
8B
330
18
100
AcDbEntity
  8
31
  6
Continuous
 62
     7
100
AcDbCircle
 10
73.83781189041565
 20
178.4768164777366
 30
0.0
 40
0.8001080155372619
100
AcDbArc
 50
0.0008544921874262
 51
90.00088500976572
1001
PHOENIX7010
1002
{
1070
    41
1040
0.5
1002
}
  0
ARC
  5
8C
330
18
100
AcDbEntity
  8
31
  6
Continuous
 62
     7
100
AcDbCircle
 10
75.43790954666565
 20
178.0766699933616
 30
0.0
 40
0.7999759912490845
100
AcDbArc
 50
179.9988708496082
 51
269.9988250732423
1001
PHOENIX7010
1002
{
1070
    41
1040
0.5
1002
}
  0
LINE
  5
8D
330
18
100
AcDbEntity
  8
31
  6
Continuous
 62
     7
100
AcDbLine
 10
72.63786071854065
 20
169.1452735089866
 30
0.0
 11
72.63786071854065
 21
168.4766333722679
 31
0.0
1001
PHOENIX7010
1002
{
1070
    41
1040
0.5
1002
}
  0
LINE
  5
8E
330
18
100
AcDbEntity
  8
31
  6
Continuous
 62
     7
100
AcDbLine
 10
72.23783630447815
 20
177.0766699933616
 30
0.0
 11
72.23783630447815
 21
169.8766883039085
 31
0.0
1001
PHOENIX7010
1002
{
1070
    41
1040
0.5
1002
}
  0
LINE
  5
8F
330
18
100
AcDbEntity
  8
31
  6
Continuous
 62
     7
100
AcDbLine
 10
72.40348571854065
 20
177.2423194074241
 30
0.0
 11
72.23771423416565
 21
177.0766089582054
 31
0.0
1001
PHOENIX7010
1002
{
1070
    41
1040
0.5
1002
}
  0
LINE
  5
90
330
18
100
AcDbEntity
  8
31
  6
Continuous
 62
     7
100
AcDbLine
 10
72.63786071854065
 20
178.4768469953147
 30
0.0
 11
72.63786071854065
 21
177.8080237531272
 31
0.0
1001
PHOENIX7010
1002
{
1070
    41
1040
0.5
1002
}
  0
LINE
  5
91
330
18
100
AcDbEntity
  8
31
  6
Continuous
 62
     7
100
AcDbLine
 10
116.3046087654156
 20
201.6766455792991
 30
0.0
 11
110.4377874763531
 21
201.6766455792991
 31
0.0
1001
PHOENIX7010
1002
{
1070
    41
1040
0.5
1002
}
  0
LINE
  5
92
330
18
100
AcDbEntity
  8
31
  6
Continuous
 62
     7
100
AcDbLine
 10
79.20206970291565
 20
179.8409522199241
 30
0.0
 11
76.87211364822815
 21
177.5109961652366
 31
0.0
1001
PHOENIX7010
1002
{
1070
    41
1040
0.5
1002
}
  0
LINE
  5
93
330
18
100
AcDbEntity
  8
31
  6
Continuous
 62
     7
100
AcDbLine
 10
110.4376654060406
 20
201.6766455792991
 30
0.0
 11
110.4376654060406
 21
206.0766699933616
 31
0.0
1001
PHOENIX7010
1002
{
1070
    41
1040
0.5
1002
}
  0
LINE
  5
94
330
18
100
AcDbEntity
  8
31
  6
Continuous
 62
     7
100
AcDbLine
 10
109.6376165779156
 20
206.8765967511741
 30
0.0
 11
73.43778747635315
 21
206.8765967511741
 31
0.0
1001
PHOENIX7010
1002
{
1070
    41
1040
0.5
1002
}
  0
LINE
  5
95
330
18
100
AcDbEntity
  8
31
  6
Continuous
 62
     7
100
AcDbLine
 10
105.0378851326031
 20
180.0766699933616
 30
0.0
 11
101.8378118904156
 21
180.0766699933616
 31
0.0
1001
PHOENIX7010
1002
{
1070
    41
1040
0.5
1002
}
  0
LINE
  5
96
330
18
100
AcDbEntity
  8
31
  6
Continuous
 62
     7
100
AcDbLine
 10
108.2378363044781
 20
191.0766699933616
 30
0.0
 11
108.2378363044781
 21
183.2766516828147
 31
0.0
1001
PHOENIX7010
1002
{
1070
    41
1040
0.5
1002
}
  0
LINE
  5
97
330
18
100
AcDbEntity
  8
31
  6
Continuous
 62
     7
100
AcDbLine
 10
101.8378118904156
 20
194.2766822003929
 30
0.0
 11
105.0377630622906
 21
194.2766822003929
 31
0.0
1001
PHOENIX7010
1002
{
1070
    41
1040
0.5
1002
}
  0
LINE
  5
98
330
18
100
AcDbEntity
  8
31
  6
Continuous
 62
     7
100
AcDbLine
 10
101.8378118904156
 20
197.6766455792991
 30
0.0
 11
101.8378118904156
 21
194.2766822003929
 31
0.0
1001
PHOENIX7010
1002
{
1070
    41
1040
0.5
1002
}
  0
LINE
  5
99
330
18
100
AcDbEntity
  8
31
  6
Continuous
 62
     7
100
AcDbLine
 10
93.03788513260315
 20
197.6766455792991
 30
0.0
 11
101.8378118904156
 21
197.6766455792991
 31
0.0
1001
PHOENIX7010
1002
{
1070
    41
1040
0.5
1002
}
  0
LINE
  5
9A
330
18
100
AcDbEntity
  8
31
  6
Continuous
 62
     7
100
AcDbLine
 10
93.03788513260315
 20
194.2766822003929
 30
0.0
 11
93.03788513260315
 21
197.6766455792991
 31
0.0
1001
PHOENIX7010
1002
{
1070
    41
1040
0.5
1002
}
  0
LINE
  5
9B
330
18
100
AcDbEntity
  8
31
  6
Continuous
 62
     7
100
AcDbLine
 10
85.03776306229065
 20
194.2766822003929
 30
0.0
 11
93.03776306229066
 21
194.2766822003929
 31
0.0
1001
PHOENIX7010
1002
{
1070
    41
1040
0.5
1002
}
  0
LINE
  5
9C
330
18
100
AcDbEntity
  8
31
  6
Continuous
 62
     7
100
AcDbLine
 10
85.03776306229065
 20
197.6766455792991
 30
0.0
 11
85.03776306229065
 21
194.2766822003929
 31
0.0
1001
PHOENIX7010
1002
{
1070
    41
1040
0.5
1002
}
  0
LINE
  5
9D
330
18
100
AcDbEntity
  8
31
  6
Continuous
 62
     7
100
AcDbLine
 10
80.23783630447814
 20
197.6766455792991
 30
0.0
 11
85.03776306229065
 21
197.6766455792991
 31
0.0
1001
PHOENIX7010
1002
{
1070
    41
1040
0.5
1002
}
  0
LINE
  5
9E
330
18
100
AcDbEntity
  8
31
  6
Continuous
 62
     7
100
AcDbLine
 10
80.23783630447814
 20
194.2766822003929
 30
0.0
 11
80.23783630447814
 21
197.6766455792991
 31
0.0
1001
PHOENIX7010
1002
{
1070
    41
1040
0.5
1002
}
  0
LINE
  5
9F
330
18
100
AcDbEntity
  8
31
  6
Continuous
 62
     7
100
AcDbLine
 10
73.43790954666565
 20
194.2766822003929
 30
0.0
 11
80.23795837479065
 21
194.2766822003929
 31
0.0
1001
PHOENIX7010
1002
{
1070
    41
1040
0.5
1002
}
  0
LINE
  5
A0
330
18
100
AcDbEntity
  8
31
  6
Continuous
 62
     7
100
AcDbLine
 10
103.2378363044781
 20
166.8766577863304
 30
0.0
 11
107.4379095466656
 21
166.8766577863304
 31
0.0
1001
PHOENIX7010
1002
{
1070
    41
1040
0.5
1002
}
  0
LINE
  5
A1
330
18
100
AcDbEntity
  8
31
  6
Continuous
 62
     7
100
AcDbLine
 10
103.2378363044781
 20
169.6766455792991
 30
0.0
 11
103.2378363044781
 21
166.8766272687522
 31
0.0
1001
PHOENIX7010
1002
{
1070
    41
1040
0.5
1002
}
  0
LINE
  5
A2
330
18
100
AcDbEntity
  8
31
  6
Continuous
 62
     7
100
AcDbLine
 10
100.0378851326031
 20
170.4766333722679
 30
0.0
 11
102.4379095466656
 21
170.4766333722679
 31
0.0
1001
PHOENIX7010
1002
{
1070
    41
1040
0.5
1002
}
  0
LINE
  5
A3
330
18
100
AcDbEntity
  8
31
  6
Continuous
 62
     7
100
AcDbLine
 10
87.18717712479065
 20
169.2766516828147
 30
0.0
 11
98.48869079666565
 21
169.2766516828147
 31
0.0
1001
PHOENIX7010
1002
{
1070
    41
1040
0.5
1002
}
  0
LINE
  5
A4
330
18
100
AcDbEntity
  8
31
  6
Continuous
 62
     7
100
AcDbLine
 10
83.23783630447815
 20
170.4766333722679
 30
0.0
 11
85.63786071854066
 21
170.4766333722679
 31
0.0
1001
PHOENIX7010
1002
{
1070
    41
1040
0.5
1002
}
  0
LINE
  5
A5
330
18
100
AcDbEntity
  8
31
  6
Continuous
 62
     7
100
AcDbLine
 10
82.43790954666565
 20
166.8766577863304
 30
0.0
 11
82.43790954666565
 21
169.6766455792991
 31
0.0
1001
PHOENIX7010
1002
{
1070
    41
1040
0.5
1002
}
  0
LINE
  5
A6
330
18
100
AcDbEntity
  8
31
  6
Continuous
 62
     7
100
AcDbLine
 10
77.43790954666565
 20
166.8766577863304
 30
0.0
 11
82.43790954666565
 21
166.8766577863304
 31
0.0
1001
PHOENIX7010
1002
{
1070
    41
1040
0.5
1002
}
  0
LINE
  5
A7
330
18
100
AcDbEntity
  8
31
  6
Continuous
 62
     7
100
AcDbLine
 10
76.63786071854065
 20
168.8766577863304
 30
0.0
 11
76.63786071854065
 21
167.6766455792991
 31
0.0
1001
PHOENIX7010
1002
{
1070
    41
1040
0.5
1002
}
  0
LINE
  5
A8
330
18
100
AcDbEntity
  8
31
  6
Continuous
 62
     7
100
AcDbLine
 10
75.43790954666565
 20
169.6766455792991
 30
0.0
 11
75.83793396072815
 21
169.6766455792991
 31
0.0
1001
PHOENIX7010
1002
{
1070
    41
1040
0.5
1002
}
  0
LINE
  5
A9
330
18
100
AcDbEntity
  8
31
  6
Continuous
 62
     7
100
AcDbLine
 10
74.63786071854065
 20
168.4766333722679
 30
0.0
 11
74.63786071854065
 21
168.8766272687522
 31
0.0
1001
PHOENIX7010
1002
{
1070
    41
1040
0.5
1002
}
  0
LINE
  5
AA
330
18
100
AcDbEntity
  8
31
  6
Continuous
 62
     7
100
AcDbLine
 10
73.43790954666565
 20
167.6766455792991
 30
0.0
 11
73.83793396072815
 21
167.6766455792991
 31
0.0
1001
PHOENIX7010
1002
{
1070
    41
1040
0.5
1002
}
  0
LINE
  5
AB
330
18
100
AcDbEntity
  8
31
  6
Continuous
 62
     7
100
AcDbLine
 10
73.83781189041565
 20
179.2768653058616
 30
0.0
 11
73.43790954666565
 21
179.2768653058616
 31
0.0
1001
PHOENIX7010
1002
{
1070
    41
1040
0.5
1002
}
  0
LINE
  5
AC
330
18
100
AcDbEntity
  8
31
  6
Continuous
 62
     7
100
AcDbLine
 10
74.63786071854065
 20
178.0766394757835
 30
0.0
 11
74.63786071854065
 21
178.4767554425804
 31
0.0
1001
PHOENIX7010
1002
{
1070
    41
1040
0.5
1002
}
  0
LINE
  5
AD
330
18
100
AcDbEntity
  8
31
  6
Continuous
 62
     7
100
AcDbLine
 10
76.30643982010315
 20
177.2766516828147
 30
0.0
 11
75.43790954666565
 21
177.2766516828147
 31
0.0
1001
PHOENIX7010
1002
{
1070
    41
1040
0.5
1002
}
  0
LINE
  5
AE
330
18
100
AcDbEntity
  8
31
  6
Continuous
 62
     7
100
AcDbLine
 10
80.23783630447814
 20
180.0752661847679
 30
0.0
 11
79.76774353104065
 21
180.0752661847679
 31
0.0
1001
PHOENIX7010
1002
{
1070
    41
1040
0.5
1002
}
  0
LINE
  5
AF
330
18
100
AcDbEntity
  8
31
  6
Continuous
 62
     7
100
AcDbLine
 10
80.23783630447814
 20
176.6766455792991
 30
0.0
 11
80.23783630447814
 21
180.0752661847679
 31
0.0
1001
PHOENIX7010
1002
{
1070
    41
1040
0.5
1002
}
  0
LINE
  5
B0
330
18
100
AcDbEntity
  8
31
  6
Continuous
 62
     7
100
AcDbLine
 10
85.03776306229065
 20
176.6766455792991
 30
0.0
 11
80.23771423416565
 21
176.6766455792991
 31
0.0
1001
PHOENIX7010
1002
{
1070
    41
1040
0.5
1002
}
  0
LINE
  5
B1
330
18
100
AcDbEntity
  8
31
  6
Continuous
 62
     7
100
AcDbLine
 10
85.03776306229065
 20
180.0766699933616
 30
0.0
 11
85.03776306229065
 21
176.6766760968772
 31
0.0
1001
PHOENIX7010
1002
{
1070
    41
1040
0.5
1002
}
  0
LINE
  5
B2
330
18
100
AcDbEntity
  8
31
  6
Continuous
 62
     7
100
AcDbLine
 10
93.03788513260315
 20
180.0766699933616
 30
0.0
 11
85.03776306229065
 21
180.0766699933616
 31
0.0
1001
PHOENIX7010
1002
{
1070
    41
1040
0.5
1002
}
  0
LINE
  5
B3
330
18
100
AcDbEntity
  8
31
  6
Continuous
 62
     7
100
AcDbLine
 10
93.03788513260315
 20
176.6766455792991
 30
0.0
 11
93.03788513260315
 21
180.0766699933616
 31
0.0
1001
PHOENIX7010
1002
{
1070
    41
1040
0.5
1002
}
  0
LINE
  5
B4
330
18
100
AcDbEntity
  8
31
  6
Continuous
 62
     7
100
AcDbLine
 10
101.8378118904156
 20
176.6766455792991
 30
0.0
 11
93.03776306229066
 21
176.6766455792991
 31
0.0
1001
PHOENIX7010
1002
{
1070
    41
1040
0.5
1002
}
  0
LINE
  5
B5
330
18
100
AcDbEntity
  8
31
  6
Continuous
 62
     7
100
AcDbLine
 10
101.8378118904156
 20
180.0766699933616
 30
0.0
 11
101.8378118904156
 21
176.6766760968772
 31
0.0
1001
PHOENIX7010
1002
{
1070
    41
1040
0.5
1002
}
  0
ARC
  5
B6
330
18
100
AcDbEntity
  8
31
  6
Continuous
 62
     7
100
AcDbCircle
 10
71.88273376541565
 20
206.4529517316429
 30
0.0
 40
0.8000000119209289
100
AcDbArc
 50
315.0003128051761
 51
346.4000034332257
1001
PHOENIX7010
1002
{
1070
    41
1040
0.5
1002
}
  0
ARC
  5
B7
330
18
100
AcDbEntity
  8
31
  6
Continuous
 62
     7
100
AcDbCircle
 10
73.43790954666565
 20
206.0766699933616
 30
0.0
 40
0.8000199794769287
100
AcDbArc
 50
89.99893188476573
 51
166.3986358642571
1001
PHOENIX7010
1002
{
1070
    41
1040
0.5
1002
}
  0
LINE
  5
B8
330
18
100
AcDbEntity
  8
31
  6
Continuous
 62
     7
100
AcDbLine
 10
72.44840759354065
 20
205.8872168683616
 30
0.0
 11
72.23783630447815
 21
205.6766455792991
 31
0.0
1001
PHOENIX7010
1002
{
1070
    41
1040
0.5
1002
}
  0
ARC
  5
B9
330
18
100
AcDbEntity
  8
31
  6
Continuous
 62
     7
100
AcDbCircle
 10
108.2378363044781
 20
172.476679148635
 30
0.0
 40
0.8000000119209289
100
AcDbArc
 50
90.00000000000003
 51
180.0
1001
PHOENIX7010
1002
{
1070
    41
1040
0.5
1002
}
  0
LINE
  5
BA
330
18
100
AcDbEntity
  8
31
  6
Continuous
 62
     7
100
AcDbLine
 10
108.2378363044781
 20
173.2766516828147
 30
0.0
 11
113.0378851326031
 21
173.2766516828147
 31
0.0
1001
PHOENIX7010
1002
{
1070
    41
1040
0.5
1002
}
  0
LINE
  5
BB
330
18
100
AcDbEntity
  8
31
  6
Continuous
 62
     7
100
AcDbLine
 10
107.4379095466656
 20
166.8766577863304
 30
0.0
 11
107.4379095466656
 21
172.4766333722679
 31
0.0
1001
PHOENIX7010
1002
{
1070
    41
1040
0.5
1002
}
  0
ARC
  5
BC
330
18
100
AcDbEntity
  8
31
  6
Continuous
 62
     7
100
AcDbCircle
 10
73.43790954666565
 20
195.0767310285178
 30
0.0
 40
0.8000199794769287
100
AcDbArc
 50
193.6013793945315
 51
270.0010757446289
1001
PHOENIX7010
1002
{
1070
    41
1040
0.5
1002
}
  0
ARC
  5
BD
330
18
100
AcDbEntity
  8
31
  6
Continuous
 62
     7
100
AcDbCircle
 10
71.88273376541565
 20
194.7005103253929
 30
0.0
 40
0.8000000119209289
100
AcDbArc
 50
13.60000610351607
 51
44.99969482421907
1001
PHOENIX7010
1002
{
1070
    41
1040
0.5
1002
}
  0
ARC
  5
BE
330
18
100
AcDbEntity
  8
31
  6
Continuous
 62
     7
100
AcDbCircle
 10
71.83781189041565
 20
169.1453345441429
 30
0.0
 40
0.8000040054321289
100
AcDbArc
 50
0.0003662109379226
 51
45.00036621093769
1001
PHOENIX7010
1002
{
1070
    41
1040
0.5
1002
}
  0
LINE
  5
BF
330
18
100
AcDbEntity
  8
31
  6
Continuous
 62
     7
100
AcDbLine
 10
72.23783630447815
 20
195.4766944074241
 30
0.0
 11
72.44840759354065
 21
195.2661231183616
 31
0.0
1001
PHOENIX7010
1002
{
1070
    41
1040
0.5
1002
}
  0
LINE
  5
C0
330
18
100
AcDbEntity
  8
31
  6
Continuous
 62
     7
100
AcDbLine
 10
72.23783630447815
 20
169.8766577863304
 30
0.0
 11
72.40348571854065
 21
169.7109473371116
 31
0.0
1001
PHOENIX7010
1002
{
1070
    41
1040
0.5
1002
}
  0
ARC
  5
C1
330
18
100
AcDbEntity
  8
31
  6
Continuous
 62
     7
100
AcDbCircle
 10
113.0378851326031
 20
172.476679148635
 30
0.0
 40
0.8000000119209289
100
AcDbArc
 50
0.0
 51
90.00000000000003
1001
PHOENIX7010
1002
{
1070
    41
1040
0.5
1002
}
  0
LINE
  5
C2
330
18
100
AcDbEntity
  8
31
  6
Continuous
 62
     7
100
AcDbLine
 10
113.8378118904156
 20
166.8766577863304
 30
0.0
 11
129.4377874763531
 21
166.8766577863304
 31
0.0
1001
PHOENIX7010
1002
{
1070
    41
1040
0.5
1002
}
  0
LINE
  5
C3
330
18
100
AcDbEntity
  8
31
  6
Continuous
 62
     7
100
AcDbLine
 10
113.8378118904156
 20
172.4766333722679
 30
0.0
 11
113.8378118904156
 21
166.8766272687522
 31
0.0
1001
PHOENIX7010
1002
{
1070
    41
1040
0.5
1002
}
  0
ARC
  5
C4
330
18
100
AcDbEntity
  8
31
  6
Continuous
 62
     7
100
AcDbCircle
 10
120.9376654060406
 20
178.0767157697288
 30
0.0
 40
2.000020027160644
100
AcDbArc
 50
217.2969665527351
 51
269.9999923706055
1001
PHOENIX7010
1002
{
1070
    41
1040
0.5
1002
}
  0
ARC
  5
C5
330
18
100
AcDbEntity
  8
31
  6
Continuous
 62
     7
100
AcDbCircle
 10
125.5377630622906
 20
178.0767157697288
 30
0.0
 40
2.000008106231689
100
AcDbArc
 50
269.9999923706055
 51
322.6964836120612
1001
PHOENIX7010
1002
{
1070
    41
1040
0.5
1002
}
  0
ARC
  5
C6
330
18
100
AcDbEntity
  8
31
  6
Continuous
 62
     7
100
AcDbCircle
 10
116.3046087654156
 20
200.8766425275413
 30
0.0
 40
0.8000159859657287
100
AcDbArc
 50
30.00070190429766
 51
90.00073242187502
1001
PHOENIX7010
1002
{
1070
    41
1040
0.5
1002
}
  0
ARC
  5
C7
330
18
100
AcDbEntity
  8
31
  6
Continuous
 62
     7
100
AcDbCircle
 10
137.4379095466656
 20
178.476679148635
 30
0.0
 40
3.200000047683715
100
AcDbArc
 50
180.0
 51
269.9999923706055
1001
PHOENIX7010
1002
{
1070
    41
1040
0.5
1002
}
  0
ARC
  5
C8
330
18
100
AcDbEntity
  8
31
  6
Continuous
 62
     7
100
AcDbCircle
 10
166.2378363044781
 20
178.476679148635
 30
0.0
 40
3.200000047683715
100
AcDbArc
 50
90.00000000000003
 51
180.0
1001
PHOENIX7010
1002
{
1070
    41
1040
0.5
1002
}
  0
ARC
  5
C9
330
18
100
AcDbEntity
  8
31
  6
Continuous
 62
     7
100
AcDbCircle
 10
173.4379095466656
 20
180.8767035626976
 30
0.0
 40
0.8000000119209289
100
AcDbArc
 50
0.0
 51
90.00000000000003
1001
PHOENIX7010
1002
{
1070
    41
1040
0.5
1002
}
  0
ARC
  5
CA
330
18
100
AcDbEntity
  8
31
  6
Continuous
 62
     7
100
AcDbCircle
 10
173.4379095466656
 20
179.2766974591819
 30
0.0
 40
0.8000000119209289
100
AcDbArc
 50
269.9999923706055
 51
0.0
1001
PHOENIX7010
1002
{
1070
    41
1040
0.5
1002
}
  0
ARC
  5
CB
330
18
100
AcDbEntity
  8
31
  6
Continuous
 62
     7
100
AcDbCircle
 10
173.4379095466656
 20
171.6766913556663
 30
0.0
 40
0.8000000119209289
100
AcDbArc
 50
0.0
 51
90.00000000000003
1001
PHOENIX7010
1002
{
1070
    41
1040
0.5
1002
}
  0
ARC
  5
CC
330
18
100
AcDbEntity
  8
31
  6
Continuous
 62
     7
100
AcDbCircle
 10
173.4379095466656
 20
170.0767157697288
 30
0.0
 40
0.8000000119209289
100
AcDbArc
 50
269.9999923706055
 51
0.0
1001
PHOENIX7010
1002
{
1070
    41
1040
0.5
1002
}
  0
ARC
  5
CD
330
18
100
AcDbEntity
  8
31
  6
Continuous
 62
     7
100
AcDbCircle
 10
123.2377142341656
 20
186.0767157697288
 30
0.0
 40
5.0
100
AcDbArc
 50
317.7313690185553
 51
42.26864624023328
1001
PHOENIX7010
1002
{
1070
    41
1040
0.5
1002
}
  0
ARC
  5
CE
330
18
100
AcDbEntity
  8
31
  6
Continuous
 62
     7
100
AcDbCircle
 10
130.8636907966656
 20
202.0767157697288
 30
0.0
 40
0.7999839782714844
100
AcDbArc
 50
90.00073242187502
 51
150.0007324218766
1001
PHOENIX7010
1002
{
1070
    41
1040
0.5
1002
}
  0
ARC
  5
CF
330
18
100
AcDbEntity
  8
31
  6
Continuous
 62
     7
100
AcDbCircle
 10
133.4379095466656
 20
202.0767157697288
 30
0.0
 40
0.8000000119209289
100
AcDbArc
 50
0.0
 51
90.00000000000003
1001
PHOENIX7010
1002
{
1070
    41
1040
0.5
1002
}
  0
LINE
  5
D0
330
18
100
AcDbEntity
  8
31
  6
Continuous
 62
     7
100
AcDbLine
 10
163.0378851326031
 20
178.4766333722679
 30
0.0
 11
163.0378851326031
 21
175.2766211652366
 31
0.0
1001
PHOENIX7010
1002
{
1070
    41
1040
0.5
1002
}
  0
LINE
  5
D1
330
18
100
AcDbEntity
  8
31
  6
Continuous
 62
     7
100
AcDbLine
 10
173.4379095466656
 20
181.6766455792991
 30
0.0
 11
166.2379583747906
 21
181.6766455792991
 31
0.0
1001
PHOENIX7010
1002
{
1070
    41
1040
0.5
1002
}
  0
LINE
  5
D2
330
18
100
AcDbEntity
  8
31
  6
Continuous
 62
     7
100
AcDbLine
 10
174.2378363044781
 20
179.2766516828147
 30
0.0
 11
174.2378363044781
 21
180.8766577863304
 31
0.0
1001
PHOENIX7010
1002
{
1070
    41
1040
0.5
1002
}
  0
LINE
  5
D3
330
18
100
AcDbEntity
  8
31
  6
Continuous
 62
     7
100
AcDbLine
 10
166.2378363044781
 20
178.4766333722679
 30
0.0
 11
173.4379095466656
 21
178.4766333722679
 31
0.0
1001
PHOENIX7010
1002
{
1070
    41
1040
0.5
1002
}
  0
LINE
  5
D4
330
18
100
AcDbEntity
  8
31
  6
Continuous
 62
     7
100
AcDbLine
 10
166.2378363044781
 20
172.4766333722679
 30
0.0
 11
166.2378363044781
 21
178.4766333722679
 31
0.0
1001
PHOENIX7010
1002
{
1070
    41
1040
0.5
1002
}
  0
LINE
  5
D5
330
18
100
AcDbEntity
  8
31
  6
Continuous
 62
     7
100
AcDbLine
 10
173.4379095466656
 20
172.4766333722679
 30
0.0
 11
166.2379583747906
 21
172.4766333722679
 31
0.0
1001
PHOENIX7010
1002
{
1070
    41
1040
0.5
1002
}
  0
LINE
  5
D6
330
18
100
AcDbEntity
  8
31
  6
Continuous
 62
     7
100
AcDbLine
 10
174.2378363044781
 20
170.0766699933616
 30
0.0
 11
174.2378363044781
 21
171.6767066144553
 31
0.0
1001
PHOENIX7010
1002
{
1070
    41
1040
0.5
1002
}
  0
LINE
  5
D7
330
18
100
AcDbEntity
  8
31
  6
Continuous
 62
     7
100
AcDbLine
 10
163.0378851326031
 20
175.2766516828147
 30
0.0
 11
137.4379095466656
 21
175.2766516828147
 31
0.0
1001
PHOENIX7010
1002
{
1070
    41
1040
0.5
1002
}
  0
LINE
  5
D8
330
18
100
AcDbEntity
  8
31
  6
Continuous
 62
     7
100
AcDbLine
 10
119.5377630622906
 20
195.3668921613304
 30
0.0
 11
119.5377630622906
 21
196.8767798566429
 31
0.0
1001
PHOENIX7010
1002
{
1070
    41
1040
0.5
1002
}
  0
LINE
  5
D9
330
18
100
AcDbEntity
  8
31
  6
Continuous
 62
     7
100
AcDbLine
 10
119.5377630622906
 20
191.2985938214866
 30
0.0
 11
119.5377630622906
 21
189.4396460675804
 31
0.0
1001
PHOENIX7010
1002
{
1070
    41
1040
0.5
1002
}
  0
LINE
  5
DA
330
18
100
AcDbEntity
  8
31
  6
Continuous
 62
     7
100
AcDbLine
 10
119.5377630622906
 20
195.3668921613304
 30
0.0
 11
119.5377630622906
 21
191.2985938214866
 31
0.0
1001
PHOENIX7010
1002
{
1070
    41
1040
0.5
1002
}
  0
LINE
  5
DB
330
18
100
AcDbEntity
  8
31
  6
Continuous
 62
     7
100
AcDbLine
 10
119.5377630622906
 20
180.8546851300804
 30
0.0
 11
119.5377630622906
 21
179.5048926496116
 31
0.0
1001
PHOENIX7010
1002
{
1070
    41
1040
0.5
1002
}
  0
LINE
  5
DC
330
18
100
AcDbEntity
  8
31
  6
Continuous
 62
     7
100
AcDbLine
 10
119.5377630622906
 20
182.7136328839866
 30
0.0
 11
119.5377630622906
 21
180.8547461652366
 31
0.0
1001
PHOENIX7010
1002
{
1070
    41
1040
0.5
1002
}
  0
LINE
  5
DD
330
18
100
AcDbEntity
  8
31
  6
Continuous
 62
     7
100
AcDbLine
 10
125.5377630622906
 20
176.0766699933616
 30
0.0
 11
120.9377874763531
 21
176.0766699933616
 31
0.0
1001
PHOENIX7010
1002
{
1070
    41
1040
0.5
1002
}
  0
LINE
  5
DE
330
18
100
AcDbEntity
  8
31
  6
Continuous
 62
     7
100
AcDbLine
 10
126.9376654060406
 20
179.5049536847679
 30
0.0
 11
126.9376654060406
 21
180.8545020246116
 31
0.0
1001
PHOENIX7010
1002
{
1070
    41
1040
0.5
1002
}
  0
LINE
  5
DF
330
18
100
AcDbEntity
  8
31
  6
Continuous
 62
     7
100
AcDbLine
 10
126.9376654060406
 20
180.8544715070335
 30
0.0
 11
126.9376654060406
 21
182.7136328839866
 31
0.0
1001
PHOENIX7010
1002
{
1070
    41
1040
0.5
1002
}
  0
LINE
  5
E0
330
18
100
AcDbEntity
  8
31
  6
Continuous
 62
     7
100
AcDbLine
 10
126.9376654060406
 20
191.2988379621116
 30
0.0
 11
126.9376654060406
 21
195.3670142316429
 31
0.0
1001
PHOENIX7010
1002
{
1070
    41
1040
0.5
1002
}
  0
LINE
  5
E1
330
18
100
AcDbEntity
  8
31
  6
Continuous
 62
     7
100
AcDbLine
 10
126.9376654060406
 20
189.4397071027366
 30
0.0
 11
126.9376654060406
 21
191.2988684796897
 31
0.0
1001
PHOENIX7010
1002
{
1070
    41
1040
0.5
1002
}
  0
LINE
  5
E2
330
18
100
AcDbEntity
  8
31
  6
Continuous
 62
     7
100
AcDbLine
 10
126.9376654060406
 20
196.8775122785179
 30
0.0
 11
126.9376654060406
 21
195.3670142316429
 31
0.0
1001
PHOENIX7010
1002
{
1070
    41
1040
0.5
1002
}
  0
LINE
  5
E3
330
18
100
AcDbEntity
  8
31
  6
Continuous
 62
     7
100
AcDbLine
 10
119.5377630622906
 20
196.8768408917991
 30
0.0
 11
116.9974798591656
 21
201.2766822003929
 31
0.0
1001
PHOENIX7010
1002
{
1070
    41
1040
0.5
1002
}
  0
LINE
  5
E4
330
18
100
AcDbEntity
  8
31
  6
Continuous
 62
     7
100
AcDbLine
 10
130.1708197029156
 20
202.4766333722679
 30
0.0
 11
126.9376654060406
 21
196.8775122785179
 31
0.0
1001
PHOENIX7010
1002
{
1070
    41
1040
0.5
1002
}
  0
LINE
  5
E5
330
18
100
AcDbEntity
  8
31
  6
Continuous
 62
     7
100
AcDbLine
 10
133.4379095466656
 20
202.8766577863304
 30
0.0
 11
130.8636907966656
 21
202.8766577863304
 31
0.0
1001
PHOENIX7010
1002
{
1070
    41
1040
0.5
1002
}
  0
LINE
  5
E6
330
18
100
AcDbEntity
  8
31
  6
Continuous
 62
     7
100
AcDbLine
 10
134.2378363044781
 20
178.4766333722679
 30
0.0
 11
134.2378363044781
 21
202.0766089582054
 31
0.0
1001
PHOENIX7010
1002
{
1070
    41
1040
0.5
1002
}
  0
LINE
  5
E7
330
18
100
AcDbEntity
  8
31
  6
Continuous
 62
     7
100
AcDbLine
 10
129.4379095466656
 20
169.2766516828147
 30
0.0
 11
173.4379095466656
 21
169.2766516828147
 31
0.0
1001
PHOENIX7010
1002
{
1070
    41
1040
0.5
1002
}
  0
LINE
  5
E8
330
18
100
AcDbEntity
  8
31
  6
Continuous
 62
     7
100
AcDbLine
 10
129.4379095466656
 20
166.8766577863304
 30
0.0
 11
129.4379095466656
 21
169.2766516828147
 31
0.0
1001
PHOENIX7010
1002
{
1070
    41
1040
0.5
1002
}
  0
ARC
  5
E9
330
18
100
AcDbEntity
  8
31
  6
Continuous
 62
     7
100
AcDbCircle
 10
123.2377142341656
 20
186.0767157697288
 30
0.0
 40
5.0
100
AcDbArc
 50
137.7314758300785
 51
222.2685546874991
1001
PHOENIX7010
1002
{
1070
    41
1040
0.5
1002
}
  0
LINE
  5
EB
330
18
100
AcDbEntity
  8
BZA45776
  6
Continuous
 62
     1
100
AcDbLine
 10
72.2378973396344
 20
246.8765967511741
 30
0.0
 11
174.2378363044781
 21
246.8765967511741
 31
0.0
1001
PHOENIX7010
1002
{
1070
    41
1040
0.5
1002
}
  0
LINE
  5
EC
330
18
100
AcDbEntity
  8
BZA45776
  6
Continuous
 62
     1
100
AcDbLine
 10
72.2378973396344
 20
236.8765967511741
 30
0.0
 11
72.2378973396344
 21
248.8765967511741
 31
0.0
1001
PHOENIX7010
1002
{
1070
    41
1040
0.5
1002
}
  0
LINE
  5
ED
330
18
100
AcDbEntity
  8
BZA45776
  6
Continuous
 62
     1
100
AcDbLine
 10
72.2378973396344
 20
246.8765967511741
 30
0.0
 11
75.70795959549378
 21
246.4197486066429
 31
0.0
1001
PHOENIX7010
1002
{
1070
    41
1040
0.5
1002
}
  0
LINE
  5
EE
330
18
100
AcDbEntity
  8
BZA45776
  6
Continuous
 62
     1
100
AcDbLine
 10
72.2378973396344
 20
246.8765967511741
 30
0.0
 11
75.70795959549378
 21
247.3334448957054
 31
0.0
1001
PHOENIX7010
1002
{
1070
    41
1040
0.5
1002
}
  0
LINE
  5
EF
330
18
100
AcDbEntity
  8
BZA45776
  6
Continuous
 62
     1
100
AcDbLine
 10
174.2378363044781
 20
180.8766577863304
 30
0.0
 11
174.2378363044781
 21
248.8765967511741
 31
0.0
1001
PHOENIX7010
1002
{
1070
    41
1040
0.5
1002
}
  0
LINE
  5
F0
330
18
100
AcDbEntity
  8
BZA45776
  6
Continuous
 62
     1
100
AcDbLine
 10
174.2378363044781
 20
246.8765967511741
 30
0.0
 11
170.7677740486188
 21
246.4197486066429
 31
0.0
1001
PHOENIX7010
1002
{
1070
    41
1040
0.5
1002
}
  0
LINE
  5
F1
330
18
100
AcDbEntity
  8
BZA45776
  6
Continuous
 62
     1
100
AcDbLine
 10
174.2378363044781
 20
246.8765967511741
 30
0.0
 11
170.7677740486188
 21
247.3334448957054
 31
0.0
1001
PHOENIX7010
1002
{
1070
    41
1040
0.5
1002
}
  0
TEXT
  5
F2
330
18
100
AcDbEntity
  8
BZA45776
 62
     5
100
AcDbText
 10
118.5582753132571
 20
247.9869774047125
 30
0.0
 40
3.5
  1
25.5
 72
     1
 11
122.7863237102944
 21
247.9869774047125
 31
0.0
100
AcDbText
1001
PHOENIX7010
1002
{
1070
    41
1040
0.5
1002
}
  0
LINE
  5
F4
330
18
100
AcDbEntity
  8
BZA45776
  6
Continuous
 62
     1
100
AcDbLine
 10
123.2377142341656
 20
186.0766699933616
 30
0.0
 11
128.1037420661969
 21
216.8765967511741
 31
0.0
1001
PHOENIX7010
1002
{
1070
    41
1040
0.5
1002
}
  0
LINE
  5
F5
330
18
100
AcDbEntity
  8
BZA45776
  6
Continuous
 62
     1
100
AcDbLine
 10
128.1037420661969
 20
216.8765967511741
 30
0.0
 11
137.2430548103375
 21
216.8765967511741
 31
0.0
1001
PHOENIX7010
1002
{
1070
    41
1040
0.5
1002
}
  0
LINE
  5
F7
330
18
100
AcDbEntity
  8
BZA45776
  6
Continuous
 62
     1
100
AcDbLine
 10
194.2378668220563
 20
169.2766516828147
 30
0.0
 11
194.2378668220563
 21
181.6766455792991
 31
0.0
1001
PHOENIX7010
1002
{
1070
    41
1040
0.5
1002
}
  0
LINE
  5
F8
330
18
100
AcDbEntity
  8
BZA45776
  6
Continuous
 62
     1
100
AcDbLine
 10
173.4379400642438
 20
181.6766455792991
 30
0.0
 11
182.9611334236187
 21
181.6766455792991
 31
0.0
1001
PHOENIX7010
1002
{
1070
    41
1040
0.5
1002
}
  0
LINE
  5
F9
330
18
100
AcDbEntity
  8
BZA45776
  6
Continuous
 62
     1
100
AcDbLine
 10
194.2378668220563
 20
169.2766516828147
 30
0.0
 11
193.781018677525
 21
172.7467139386741
 31
0.0
1001
PHOENIX7010
1002
{
1070
    41
1040
0.5
1002
}
  0
LINE
  5
FA
330
18
100
AcDbEntity
  8
BZA45776
  6
Continuous
 62
     1
100
AcDbLine
 10
194.2378668220563
 20
169.2766516828147
 30
0.0
 11
194.6947149665875
 21
172.7467139386741
 31
0.0
1001
PHOENIX7010
1002
{
1070
    41
1040
0.5
1002
}
  0
LINE
  5
FB
330
18
100
AcDbEntity
  8
BZA45776
  6
Continuous
 62
     1
100
AcDbLine
 10
194.2378668220563
 20
181.6766455792991
 30
0.0
 11
193.781018677525
 21
178.2065833234397
 31
0.0
1001
PHOENIX7010
1002
{
1070
    41
1040
0.5
1002
}
  0
LINE
  5
FC
330
18
100
AcDbEntity
  8
BZA45776
  6
Continuous
 62
     1
100
AcDbLine
 10
194.2378668220563
 20
181.6766455792991
 30
0.0
 11
194.6947149665875
 21
178.2065833234397
 31
0.0
1001
PHOENIX7010
1002
{
1070
    41
1040
0.5
1002
}
  0
TEXT
  5
FD
330
18
100
AcDbEntity
  8
BZA45776
 62
     5
100
AcDbText
 10
193.2378668220563
 20
172.8517249250022
 30
0.0
 40
3.5
  1
3.1
 50
90.0
 72
     1
 11
193.2378668220563
 21
175.4767249250022
 31
0.0
100
AcDbText
1001
PHOENIX7010
1002
{
1070
    41
1040
0.5
1002
}
  0
LINE
  5
FE
330
18
100
AcDbEntity
  8
BZA45776
  6
Continuous
 62
     1
100
AcDbLine
 10
185.9446844490094
 20
181.6766455792991
 30
0.0
 11
196.2378668220562
 21
181.6766455792991
 31
0.0
1001
PHOENIX7010
1002
{
1070
    41
1040
0.5
1002
}
  0
LINE
  5
FF
330
18
100
AcDbEntity
  8
BZA45776
  6
Continuous
 62
     1
100
AcDbLine
 10
185.9643072517437
 20
169.2766516828147
 30
0.0
 11
196.2378668220562
 21
169.2766516828147
 31
0.0
1001
PHOENIX7010
1002
{
1070
    41
1040
0.5
1002
}
  0
LINE
  5
100
330
18
100
AcDbEntity
  8
BZA45776
  6
Continuous
 62
     1
100
AcDbLine
 10
173.4379095466656
 20
169.2766516828147
 30
0.0
 11
182.5246252449078
 21
169.2766516828147
 31
0.0
1001
PHOENIX7010
1002
{
1070
    41
1040
0.5
1002
}
  0
LINE
  5
102
330
18
100
AcDbEntity
  8
BZA45776
  6
Continuous
 62
     1
100
AcDbLine
 10
204.2378973396344
 20
169.2766516828147
 30
0.0
 11
204.2378973396344
 21
186.0766699933616
 31
0.0
1001
PHOENIX7010
1002
{
1070
    41
1040
0.5
1002
}
  0
LINE
  5
103
330
18
100
AcDbEntity
  8
BZA45776
  6
Continuous
 62
     1
100
AcDbLine
 10
194.2378973396344
 20
169.2766516828147
 30
0.0
 11
206.2378973396344
 21
169.2766516828147
 31
0.0
1001
PHOENIX7010
1002
{
1070
    41
1040
0.5
1002
}
  0
LINE
  5
104
330
18
100
AcDbEntity
  8
BZA45776
  6
Continuous
 62
     1
100
AcDbLine
 10
136.5474066169781
 20
186.0766699933616
 30
0.0
 11
206.2378973396344
 21
186.0766699933616
 31
0.0
1001
PHOENIX7010
1002
{
1070
    41
1040
0.5
1002
}
  0
LINE
  5
105
330
18
100
AcDbEntity
  8
BZA45776
  6
Continuous
 62
     1
100
AcDbLine
 10
204.2378973396344
 20
169.2766516828147
 30
0.0
 11
203.7810491951031
 21
172.7467139386741
 31
0.0
1001
PHOENIX7010
1002
{
1070
    41
1040
0.5
1002
}
  0
LINE
  5
106
330
18
100
AcDbEntity
  8
BZA45776
  6
Continuous
 62
     1
100
AcDbLine
 10
204.2378973396344
 20
169.2766516828147
 30
0.0
 11
204.6947454841657
 21
172.7467139386741
 31
0.0
1001
PHOENIX7010
1002
{
1070
    41
1040
0.5
1002
}
  0
LINE
  5
107
330
18
100
AcDbEntity
  8
BZA45776
  6
Continuous
 62
     1
100
AcDbLine
 10
204.2378973396344
 20
186.0766699933616
 30
0.0
 11
203.7810491951031
 21
182.6066077375022
 31
0.0
1001
PHOENIX7010
1002
{
1070
    41
1040
0.5
1002
}
  0
LINE
  5
108
330
18
100
AcDbEntity
  8
BZA45776
  6
Continuous
 62
     1
100
AcDbLine
 10
204.2378973396344
 20
186.0766699933616
 30
0.0
 11
204.6947454841657
 21
182.6066077375022
 31
0.0
1001
PHOENIX7010
1002
{
1070
    41
1040
0.5
1002
}
  0
TEXT
  5
109
330
18
100
AcDbEntity
  8
BZA45776
 62
     5
100
AcDbText
 10
203.2378973396344
 20
174.4216032679987
 30
0.0
 40
3.5
  1
4.2
 50
90.0
 72
     1
 11
203.2378973396344
 21
177.6767066144554
 31
0.0
100
AcDbText
1001
PHOENIX7010
1002
{
1070
    41
1040
0.5
1002
}
  0
TEXT
  5
10B
330
18
100
AcDbEntity
  8
BZA45776
 62
     5
100
AcDbText
 10
183.2063421638531
 20
172.115044855906
 30
0.0
 40
3.5
  1
1.5
 50
90.0
100
AcDbText
1001
PHOENIX7010
1002
{
1070
    41
1040
0.5
1002
}
  0
LINE
  5
10D
330
18
100
AcDbEntity
  8
BZA45776
  6
Continuous
 62
     1
100
AcDbLine
 10
173.4379705818219
 20
172.4766333722679
 30
0.0
 11
186.2378973396344
 21
172.4766333722679
 31
0.0
1001
PHOENIX7010
1002
{
1070
    41
1040
0.5
1002
}
  0
LINE
  5
10E
330
18
100
AcDbEntity
  8
BZA45776
  6
Continuous
 62
     1
100
AcDbLine
 10
173.4379705818219
 20
178.4766333722679
 30
0.0
 11
186.2378973396344
 21
178.4766333722679
 31
0.0
1001
PHOENIX7010
1002
{
1070
    41
1040
0.5
1002
}
  0
LINE
  5
10F
330
18
100
AcDbEntity
  8
BZA45776
  6
Continuous
 62
     1
100
AcDbLine
 10
184.2378973396344
 20
172.4766333722679
 30
0.0
 11
183.7810491951031
 21
169.0065711164085
 31
0.0
1001
PHOENIX7010
1002
{
1070
    41
1040
0.5
1002
}
  0
LINE
  5
110
330
18
100
AcDbEntity
  8
BZA45776
  6
Continuous
 62
     1
100
AcDbLine
 10
184.2378973396344
 20
172.4766333722679
 30
0.0
 11
184.6947454841656
 21
169.0065711164085
 31
0.0
1001
PHOENIX7010
1002
{
1070
    41
1040
0.5
1002
}
  0
LINE
  5
111
330
18
100
AcDbEntity
  8
BZA45776
  6
Continuous
 62
     1
100
AcDbLine
 10
184.2378973396344
 20
178.4766333722679
 30
0.0
 11
183.7810491951031
 21
181.9466956281272
 31
0.0
1001
PHOENIX7010
1002
{
1070
    41
1040
0.5
1002
}
  0
LINE
  5
112
330
18
100
AcDbEntity
  8
BZA45776
  6
Continuous
 62
     1
100
AcDbLine
 10
184.2378973396344
 20
178.4766333722679
 30
0.0
 11
184.6947454841656
 21
181.9466956281272
 31
0.0
1001
PHOENIX7010
1002
{
1070
    41
1040
0.5
1002
}
  0
LINE
  5
113
330
18
100
AcDbEntity
  8
BZA45776
  6
Continuous
 62
     1
100
AcDbLine
 10
184.2378973396344
 20
165.6676123761741
 30
0.0
 11
184.2378973396344
 21
184.8578894757835
 31
0.0
1001
PHOENIX7010
1002
{
1070
    41
1040
0.5
1002
}
  0
LINE
  5
115
330
18
100
AcDbEntity
  8
BZA45776
  6
Continuous
 62
     1
100
AcDbLine
 10
214.2378973396344
 20
169.2766516828147
 30
0.0
 11
214.2378973396344
 21
202.8766577863304
 31
0.0
1001
PHOENIX7010
1002
{
1070
    41
1040
0.5
1002
}
  0
LINE
  5
116
330
18
100
AcDbEntity
  8
BZA45776
  6
Continuous
 62
     1
100
AcDbLine
 10
204.2378973396344
 20
169.2766516828147
 30
0.0
 11
216.2378973396344
 21
169.2766516828147
 31
0.0
1001
PHOENIX7010
1002
{
1070
    41
1040
0.5
1002
}
  0
LINE
  5
117
330
18
100
AcDbEntity
  8
BZA45776
  6
Continuous
 62
     1
100
AcDbLine
 10
214.2378973396344
 20
169.2766516828147
 30
0.0
 11
213.7810491951031
 21
172.7467139386741
 31
0.0
1001
PHOENIX7010
1002
{
1070
    41
1040
0.5
1002
}
  0
LINE
  5
118
330
18
100
AcDbEntity
  8
BZA45776
  6
Continuous
 62
     1
100
AcDbLine
 10
214.2378973396344
 20
169.2766516828147
 30
0.0
 11
214.6947454841657
 21
172.7467139386741
 31
0.0
1001
PHOENIX7010
1002
{
1070
    41
1040
0.5
1002
}
  0
LINE
  5
119
330
18
100
AcDbEntity
  8
BZA45776
  6
Continuous
 62
     1
100
AcDbLine
 10
214.2378973396344
 20
202.8766577863304
 30
0.0
 11
213.7810491951031
 21
199.406595530471
 31
0.0
1001
PHOENIX7010
1002
{
1070
    41
1040
0.5
1002
}
  0
LINE
  5
11A
330
18
100
AcDbEntity
  8
BZA45776
  6
Continuous
 62
     1
100
AcDbLine
 10
214.2378973396344
 20
202.8766577863304
 30
0.0
 11
214.6947454841657
 21
199.406595530471
 31
0.0
1001
PHOENIX7010
1002
{
1070
    41
1040
0.5
1002
}
  0
TEXT
  5
11B
330
18
100
AcDbEntity
  8
BZA45776
 62
     5
100
AcDbText
 10
213.2378973396344
 20
181.5267005109397
 30
0.0
 40
3.5
  1
 8.4 
 50
90.0
 72
     1
 11
213.2378973396344
 21
186.0767005109398
 31
0.0
100
AcDbText
1001
PHOENIX7010
1002
{
1070
    41
1040
0.5
1002
}
  0
LINE
  5
11C
330
18
100
AcDbEntity
  8
BZA45776
  6
Continuous
 62
     1
100
AcDbLine
 10
133.4379705818219
 20
202.8766577863304
 30
0.0
 11
216.2378973396344
 21
202.8766577863304
 31
0.0
1001
PHOENIX7010
1002
{
1070
    41
1040
0.5
1002
}
  0
TEXT
  5
11E
330
18
100
AcDbEntity
  8
BZA45776
 62
     5
100
AcDbText
 10
213.2073797615094
 20
157.484032611395
 30
0.0
 40
3.5
  1
0.6
 50
90.0
100
AcDbText
1001
PHOENIX7010
1002
{
1070
    41
1040
0.5
1002
}
  0
LINE
  5
120
330
18
100
AcDbEntity
  8
BZA45776
  6
Continuous
 62
     1
100
AcDbLine
 10
214.2378668220563
 20
166.8766577863304
 30
0.0
 11
213.781018677525
 21
163.406595530471
 31
0.0
1001
PHOENIX7010
1002
{
1070
    41
1040
0.5
1002
}
  0
LINE
  5
121
330
18
100
AcDbEntity
  8
BZA45776
  6
Continuous
 62
     1
100
AcDbLine
 10
214.2378668220563
 20
166.8766577863304
 30
0.0
 11
214.6947149665875
 21
163.406595530471
 31
0.0
1001
PHOENIX7010
1002
{
1070
    41
1040
0.5
1002
}
  0
LINE
  5
122
330
18
100
AcDbEntity
  8
BZA45776
  6
Continuous
 62
     1
100
AcDbLine
 10
214.2378668220563
 20
169.2766516828147
 30
0.0
 11
213.781018677525
 21
172.7467139386741
 31
0.0
1001
PHOENIX7010
1002
{
1070
    41
1040
0.5
1002
}
  0
LINE
  5
123
330
18
100
AcDbEntity
  8
BZA45776
  6
Continuous
 62
     1
100
AcDbLine
 10
214.2378668220563
 20
169.2766516828147
 30
0.0
 11
214.6947149665875
 21
172.7467139386741
 31
0.0
1001
PHOENIX7010
1002
{
1070
    41
1040
0.5
1002
}
  0
LINE
  5
124
330
18
100
AcDbEntity
  8
BZA45776
  6
Continuous
 62
     1
100
AcDbLine
 10
214.2378668220563
 20
157.3750708722679
 30
0.0
 11
214.2378668220563
 21
183.7766211652366
 31
0.0
1001
PHOENIX7010
1002
{
1070
    41
1040
0.5
1002
}
  0
LINE
  5
125
330
18
100
AcDbEntity
  8
BZA45776
  6
Continuous
 62
     1
100
AcDbLine
 10
129.4377874763531
 20
166.8766577863304
 30
0.0
 11
146.8860906990094
 21
166.8766577863304
 31
0.0
1001
PHOENIX7010
1002
{
1070
    41
1040
0.5
1002
}
  0
LINE
  5
126
330
18
100
AcDbEntity
  8
BZA45776
  6
Continuous
 62
     1
100
AcDbLine
 10
155.7824682624859
 20
166.8766577863304
 30
0.0
 11
182.5379156501812
 21
166.8766577863304
 31
0.0
1001
PHOENIX7010
1002
{
1070
    41
1040
0.5
1002
}
  0
LINE
  5
127
330
18
100
AcDbEntity
  8
BZA45776
  6
Continuous
 62
     1
100
AcDbLine
 10
185.7284368904156
 20
166.8766577863304
 30
0.0
 11
216.2378668220563
 21
166.8766577863304
 31
0.0
1001
PHOENIX7010
1002
{
1070
    41
1040
0.5
1002
}
  0
LINE
  5
129
330
18
100
AcDbEntity
  8
BZA45776
  6
Continuous
 62
     1
100
AcDbLine
 10
174.2379583747906
 20
206.0766089582054
 30
0.0
 11
174.2379583747906
 21
218.8765967511741
 31
0.0
1001
PHOENIX7010
1002
{
1070
    41
1040
0.5
1002
}
  0
LINE
  5
12A
330
18
100
AcDbEntity
  8
BZA45776
  6
Continuous
 62
     1
100
AcDbLine
 10
166.2378973396344
 20
216.8765967511741
 30
0.0
 11
162.767835083775
 21
217.3334448957054
 31
0.0
1001
PHOENIX7010
1002
{
1070
    41
1040
0.5
1002
}
  0
LINE
  5
12B
330
18
100
AcDbEntity
  8
BZA45776
  6
Continuous
 62
     1
100
AcDbLine
 10
166.2378973396344
 20
216.8765967511741
 30
0.0
 11
162.767835083775
 21
216.4197486066429
 31
0.0
1001
PHOENIX7010
1002
{
1070
    41
1040
0.5
1002
}
  0
LINE
  5
12C
330
18
100
AcDbEntity
  8
BZA45776
  6
Continuous
 62
     1
100
AcDbLine
 10
174.2379583747906
 20
216.8765967511741
 30
0.0
 11
177.70802063065
 21
217.3334448957054
 31
0.0
1001
PHOENIX7010
1002
{
1070
    41
1040
0.5
1002
}
  0
LINE
  5
12D
330
18
100
AcDbEntity
  8
BZA45776
  6
Continuous
 62
     1
100
AcDbLine
 10
174.2379583747906
 20
216.8765967511741
 30
0.0
 11
177.70802063065
 21
216.4197486066429
 31
0.0
1001
PHOENIX7010
1002
{
1070
    41
1040
0.5
1002
}
  0
LINE
  5
12E
330
18
100
AcDbEntity
  8
BZA45776
  6
Continuous
 62
     1
100
AcDbLine
 10
166.2378973396344
 20
178.4766333722679
 30
0.0
 11
166.2378973396344
 21
218.8765967511741
 31
0.0
1001
PHOENIX7010
1002
{
1070
    41
1040
0.5
1002
}
  0
LINE
  5
12F
330
18
100
AcDbEntity
  8
BZA45776
  6
Continuous
 62
     1
100
AcDbLine
 10
159.2378973396344
 20
216.8765967511741
 30
0.0
 11
181.5143865974469
 21
216.8765967511741
 31
0.0
1001
PHOENIX7010
1002
{
1070
    41
1040
0.5
1002
}
  0
LINE
  5
131
330
18
100
AcDbEntity
  8
BZA45776
  6
Continuous
 62
     1
100
AcDbLine
 10
93.03785461502503
 20
226.8765967511741
 30
0.0
 11
89.56779235916565
 21
226.4197486066429
 31
0.0
1001
PHOENIX7010
1002
{
1070
    41
1040
0.5
1002
}
  0
LINE
  5
132
330
18
100
AcDbEntity
  8
BZA45776
  6
Continuous
 62
     1
100
AcDbLine
 10
93.03785461502503
 20
226.8765967511741
 30
0.0
 11
89.56779235916565
 21
227.3334448957054
 31
0.0
1001
PHOENIX7010
1002
{
1070
    41
1040
0.5
1002
}
  0
LINE
  5
133
330
18
100
AcDbEntity
  8
BZA45776
  6
Continuous
 62
     1
100
AcDbLine
 10
86.03785461502502
 20
226.8765967511741
 30
0.0
 11
108.3808111579938
 21
226.8765967511741
 31
0.0
1001
PHOENIX7010
1002
{
1070
    41
1040
0.5
1002
}
  0
LINE
  5
134
330
18
100
AcDbEntity
  8
BZA45776
  6
Continuous
 62
     1
100
AcDbLine
 10
101.8378118904156
 20
197.6766455792991
 30
0.0
 11
101.8378118904156
 21
228.8765967511741
 31
0.0
1001
PHOENIX7010
1002
{
1070
    41
1040
0.5
1002
}
  0
LINE
  5
135
330
18
100
AcDbEntity
  8
BZA45776
  6
Continuous
 62
     1
100
AcDbLine
 10
101.8378118904156
 20
226.8765967511741
 30
0.0
 11
105.307874146275
 21
226.4197486066429
 31
0.0
1001
PHOENIX7010
1002
{
1070
    41
1040
0.5
1002
}
  0
LINE
  5
136
330
18
100
AcDbEntity
  8
BZA45776
  6
Continuous
 62
     1
100
AcDbLine
 10
101.8378118904156
 20
226.8765967511741
 30
0.0
 11
105.307874146275
 21
227.3334448957054
 31
0.0
1001
PHOENIX7010
1002
{
1070
    41
1040
0.5
1002
}
  0
LINE
  5
138
330
18
100
AcDbEntity
  8
BZA45776
  6
Continuous
 62
     1
100
AcDbLine
 10
153.0379309089703
 20
175.2766516828147
 30
0.0
 11
151.0378851326031
 21
175.2766516828147
 31
0.0
1001
PHOENIX7010
1002
{
1070
    41
1040
0.5
1002
}
  0
LINE
  5
139
330
18
100
AcDbEntity
  8
BZA45776
  6
Continuous
 62
     1
100
AcDbLine
 10
153.0378851326031
 20
175.2766516828147
 30
0.0
 11
152.5810369880719
 21
178.7467139386741
 31
0.0
1001
PHOENIX7010
1002
{
1070
    41
1040
0.5
1002
}
  0
LINE
  5
13A
330
18
100
AcDbEntity
  8
BZA45776
  6
Continuous
 62
     1
100
AcDbLine
 10
153.0378851326031
 20
175.2766516828147
 30
0.0
 11
153.4947332771344
 21
178.7467139386741
 31
0.0
1001
PHOENIX7010
1002
{
1070
    41
1040
0.5
1002
}
  0
LINE
  5
13B
330
18
100
AcDbEntity
  8
BZA45776
  6
Continuous
 62
     1
100
AcDbLine
 10
153.0378851326031
 20
169.2766516828147
 30
0.0
 11
152.5810369880719
 21
165.8065894269554
 31
0.0
1001
PHOENIX7010
1002
{
1070
    41
1040
0.5
1002
}
  0
LINE
  5
13C
330
18
100
AcDbEntity
  8
BZA45776
  6
Continuous
 62
     1
100
AcDbLine
 10
153.0378851326031
 20
169.2766516828147
 30
0.0
 11
153.4947332771344
 21
165.8065894269554
 31
0.0
1001
PHOENIX7010
1002
{
1070
    41
1040
0.5
1002
}
  0
TEXT
  5
13D
330
18
100
AcDbEntity
  8
BZA45776
 62
     5
100
AcDbText
 10
152.0378851326031
 20
158.8816769359841
 30
0.0
 40
3.5
  1
1.5
 50
90.0
100
AcDbText
1001
PHOENIX7010
1002
{
1070
    41
1040
0.5
1002
}
  0
LINE
  5
13E
330
18
100
AcDbEntity
  8
BZA45776
  6
Continuous
 62
     1
100
AcDbLine
 10
153.0378851326031
 20
182.2766516828147
 30
0.0
 11
153.0378851326031
 21
157.7883704328147
 31
0.0
1001
PHOENIX7010
1002
{
1070
    41
1040
0.5
1002
}
  0
LINE
  5
1E8
330
18
100
AcDbEntity
  8
31
  6
Continuous
 62
     7
100
AcDbLine
 10
119.5377630622906
 20
179.5049536847679
 30
0.0
 11
119.4591497810406
 21
179.4233496808616
 31
0.0
1001
PHOENIX7010
1002
{
1070
    41
1040
0.5
1002
}
  0
ARC
  5
1E9
330
18
100
AcDbEntity
  8
31
  6
Continuous
 62
     7
100
AcDbCircle
 10
120.9535345466656
 20
178.062616648635
 30
0.0
 40
2.02111792564392
100
AcDbArc
 50
137.6788787841802
 51
140.8805694580068
1001
PHOENIX7010
1002
{
1070
    41
1040
0.5
1002
}
  0
ARC
  5
1EA
330
18
100
AcDbEntity
  8
31
  6
Continuous
 62
     7
100
AcDbCircle
 10
120.9446234138531
 20
178.0729926251976
 30
0.0
 40
2.007619380950927
100
AcDbArc
 50
140.9490814208977
 51
144.1759948730476
1001
PHOENIX7010
1002
{
1070
    41
1040
0.5
1002
}
  0
ARC
  5
1EB
330
18
100
AcDbEntity
  8
31
  6
Continuous
 62
     7
100
AcDbCircle
 10
120.9486517341656
 20
178.0676825666038
 30
0.0
 40
2.014023780822753
100
AcDbArc
 50
144.1216278076169
 51
147.3414459228522
1001
PHOENIX7010
1002
{
1070
    41
1040
0.5
1002
}
  0
ARC
  5
1EC
330
18
100
AcDbEntity
  8
31
  6
Continuous
 62
     7
100
AcDbCircle
 10
120.9547552497906
 20
178.0681708478538
 30
0.0
 40
2.018840789794921
100
AcDbArc
 50
147.4456329345715
 51
150.6594848632811
1001
PHOENIX7010
1002
{
1070
    41
1040
0.5
1002
}
  0
ARC
  5
1ED
330
18
100
AcDbEntity
  8
31
  6
Continuous
 62
     7
100
AcDbCircle
 10
120.9554876716656
 20
178.0648444318382
 30
0.0
 40
2.021070003509521
100
AcDbArc
 50
150.5861816406245
 51
153.8025512695301
1001
PHOENIX7010
1002
{
1070
    41
1040
0.5
1002
}
  0
ARC
  5
1EE
330
18
100
AcDbEntity
  8
31
  6
Continuous
 62
     7
100
AcDbCircle
 10
120.9579290779156
 20
178.0675299787132
 30
0.0
 40
2.022163391113281
100
AcDbArc
 50
153.9020843505847
 51
157.1235046386709
1001
PHOENIX7010
1002
{
1070
    41
1040
0.5
1002
}
  0
ARC
  5
1EF
330
18
100
AcDbEntity
  8
31
  6
Continuous
 62
     7
100
AcDbCircle
 10
120.9569525154156
 20
178.0671027326194
 30
0.0
 40
2.021373033523559
100
AcDbArc
 50
157.1009521484368
 51
160.3328857421887
1001
PHOENIX7010
1002
{
1070
    41
1040
0.5
1002
}
  0
ARC
  5
1F0
330
18
100
AcDbEntity
  8
31
  6
Continuous
 62
     7
100
AcDbCircle
 10
120.9508489997906
 20
178.07360297676
 30
0.0
 40
2.013499736785888
100
AcDbArc
 50
160.4488220214832
 51
163.7057495117203
1001
PHOENIX7010
1002
{
1070
    41
1040
0.5
1002
}
  0
ARC
  5
1F1
330
18
100
AcDbEntity
  8
31
  6
Continuous
 62
     7
100
AcDbCircle
 10
120.9546331794781
 20
178.06969672676
 30
0.0
 40
2.018237590789794
100
AcDbArc
 50
163.6294555664066
 51
166.892135620117
1001
PHOENIX7010
1002
{
1070
    41
1040
0.5
1002
}
  0
ARC
  5
1F2
330
18
100
AcDbEntity
  8
31
  6
Continuous
 62
     7
100
AcDbCircle
 10
120.9662298591656
 20
178.0709784650413
 30
0.0
 40
2.029174327850341
100
AcDbArc
 50
167.0012512207028
 51
170.2630157470722
1001
PHOENIX7010
1002
{
1070
    41
1040
0.5
1002
}
  0
ARC
  5
1F3
330
18
100
AcDbEntity
  8
31
  6
Continuous
 62
     7
100
AcDbCircle
 10
120.9490179451031
 20
178.0748847150413
 30
0.0
 40
2.011615514755249
100
AcDbArc
 50
170.2904663085924
 51
173.6044616699213
1001
PHOENIX7010
1002
{
1070
    41
1040
0.5
1002
}
  0
ARC
  5
1F4
330
18
100
AcDbEntity
  8
31
  6
Continuous
 62
     7
100
AcDbCircle
 10
120.9014105232281
 20
178.0843451642601
 30
0.0
 40
1.963252425193786
100
AcDbArc
 50
173.7240905761734
 51
177.1505584716813
1001
PHOENIX7010
1002
{
1070
    41
1040
0.5
1002
}
  0
ARC
  5
1F5
330
18
100
AcDbEntity
  8
31
  6
Continuous
 62
     7
100
AcDbCircle
 10
120.9708685310406
 20
178.0735419416038
 30
0.0
 40
2.033078432083129
100
AcDbArc
 50
176.9441680908217
 51
180.2670745849616
1001
PHOENIX7010
1002
{
1070
    41
1040
0.5
1002
}
  0
ARC
  5
1F6
330
18
100
AcDbEntity
  8
31
  6
Continuous
 62
     7
100
AcDbCircle
 10
121.1471380622906
 20
178.07555610176
 30
0.0
 40
2.209394216537475
100
AcDbArc
 50
180.297973632814
 51
183.3670043945327
1001
PHOENIX7010
1002
{
1070
    41
1040
0.5
1002
}
  0
ARC
  5
1F7
330
18
100
AcDbEntity
  8
31
  6
Continuous
 62
     7
100
AcDbCircle
 10
120.9381536872906
 20
178.0857489728538
 30
0.0
 40
2.001621007919311
100
AcDbArc
 50
184.0085449218746
 51
187.4955444335936
1001
PHOENIX7010
1002
{
1070
    41
1040
0.5
1002
}
  0
ARC
  5
1F8
330
18
100
AcDbEntity
  8
31
  6
Continuous
 62
     7
100
AcDbCircle
 10
120.6110052497906
 20
178.0482428693382
 30
0.0
 40
1.672334909439086
100
AcDbArc
 50
187.6844787597659
 51
192.0334014892581
1001
PHOENIX7010
1002
{
1070
    41
1040
0.5
1002
}
  0
ARC
  5
1F9
330
18
100
AcDbEntity
  8
31
  6
Continuous
 62
     7
100
AcDbCircle
 10
121.1219915779156
 20
178.0847113751975
 30
0.0
 40
2.180839776992797
100
AcDbArc
 50
190.1713562011712
 51
193.3501586914068
1001
PHOENIX7010
1002
{
1070
    41
1040
0.5
1002
}
  0
LINE
  5
1FA
330
18
100
AcDbEntity
  8
31
  6
Continuous
 62
     7
100
AcDbLine
 10
119.0001654060406
 20
177.5811255597679
 30
0.0
 11
119.0262884529156
 21
177.4731543683616
 31
0.0
1001
PHOENIX7010
1002
{
1070
    41
1040
0.5
1002
}
  0
ARC
  5
1FB
330
18
100
AcDbEntity
  8
31
  6
Continuous
 62
     7
100
AcDbCircle
 10
120.6529974372906
 20
178.0320380353538
 30
0.0
 40
1.720085144042968
100
AcDbArc
 50
198.9589080810551
 51
203.8363342285153
1001
PHOENIX7010
1002
{
1070
    41
1040
0.5
1002
}
  0
ARC
  5
1FC
330
18
100
AcDbEntity
  8
31
  6
Continuous
 62
     7
100
AcDbCircle
 10
120.4689154060406
 20
177.9407294416038
 30
0.0
 40
1.514926195144653
100
AcDbArc
 50
203.4887390136737
 51
212.2912292480472
1001
PHOENIX7010
1002
{
1070
    41
1040
0.5
1002
}
  0
ARC
  5
1FD
330
18
100
AcDbEntity
  8
31
  6
Continuous
 62
     7
100
AcDbCircle
 10
122.9900335701031
 20
179.2100165509788
 30
0.0
 40
4.332829475402832
100
AcDbArc
 50
208.668045043945
 51
212.7690734863293
1001
PHOENIX7010
1002
{
1070
    41
1040
0.5
1002
}
  0
LINE
  5
1FF
330
18
100
AcDbEntity
  8
31
  6
Continuous
 62
     7
100
AcDbLine
 10
127.1285833747906
 20
176.8645728253929
 30
0.0
 11
127.1953558357281
 21
176.9579566144554
 31
0.0
1001
PHOENIX7010
1002
{
1070
    41
1040
0.5
1002
}
  0
ARC
  5
200
330
18
100
AcDbEntity
  8
31
  6
Continuous
 62
     7
100
AcDbCircle
 10
125.5426458747906
 20
178.0705817365257
 30
0.0
 40
1.9922776222229
100
AcDbArc
 50
326.0525283813485
 51
329.3511772155767
1001
PHOENIX7010
1002
{
1070
    41
1040
0.5
1002
}
  0
ARC
  5
201
330
18
100
AcDbEntity
  8
31
  6
Continuous
 62
     7
100
AcDbCircle
 10
125.5467962654156
 20
178.0650885724632
 30
0.0
 40
1.985885977745056
100
AcDbArc
 50
329.4255504608165
 51
332.7438755035396
1001
PHOENIX7010
1002
{
1070
    41
1040
0.5
1002
}
  0
ARC
  5
202
330
18
100
AcDbEntity
  8
31
  6
Continuous
 62
     7
100
AcDbCircle
 10
125.5319036872906
 20
178.0761969709007
 30
0.0
 40
2.004325866699218
100
AcDbArc
 50
332.6581516265851
 51
335.9545097351055
1001
PHOENIX7010
1002
{
1070
    41
1040
0.5
1002
}
  0
ARC
  5
203
330
18
100
AcDbEntity
  8
31
  6
Continuous
 62
     7
100
AcDbCircle
 10
125.5138372810406
 20
178.0821478986351
 30
0.0
 40
2.023183107376098
100
AcDbArc
 50
336.0087947845451
 51
339.2813224792477
1001
PHOENIX7010
1002
{
1070
    41
1040
0.5
1002
}
  0
ARC
  5
204
330
18
100
AcDbEntity
  8
31
  6
Continuous
 62
     7
100
AcDbCircle
 10
125.5045599372906
 20
178.0864203595726
 30
0.0
 40
2.033299207687377
100
AcDbArc
 50
339.2602043151849
 51
342.5233268737798
1001
PHOENIX7010
1002
{
1070
    41
1040
0.5
1002
}
  0
ARC
  5
205
330
18
100
AcDbEntity
  8
31
  6
Continuous
 62
     7
100
AcDbCircle
 10
125.4962591560406
 20
178.0860846662132
 30
0.0
 40
2.041128396987915
100
AcDbArc
 50
342.6022415161124
 51
345.8623781204232
1001
PHOENIX7010
1002
{
1070
    41
1040
0.5
1002
}
  0
ARC
  5
206
330
18
100
AcDbEntity
  8
31
  6
Continuous
 62
     7
100
AcDbCircle
 10
125.4933294685406
 20
178.08873969551
 30
0.0
 40
2.044744253158569
100
AcDbArc
 50
345.8111038208001
 51
349.0762739181516
1001
PHOENIX7010
1002
{
1070
    41
1040
0.5
1002
}
  0
ARC
  5
207
330
18
100
AcDbEntity
  8
31
  6
Continuous
 62
     7
100
AcDbCircle
 10
125.4987005622906
 20
178.0833686017601
 30
0.0
 40
2.038424015045166
100
AcDbArc
 50
349.1952009201045
 51
352.4821577072145
1001
PHOENIX7010
1002
{
1070
    41
1040
0.5
1002
}
  0
ARC
  5
208
330
18
100
AcDbEntity
  8
31
  6
Continuous
 62
     7
100
AcDbCircle
 10
125.4960150154156
 20
178.0851386212913
 30
0.0
 40
2.041317701339721
100
AcDbArc
 50
352.4431858062734
 51
355.7383809089673
1001
PHOENIX7010
1002
{
1070
    41
1040
0.5
1002
}
  0
ARC
  5
209
330
18
100
AcDbEntity
  8
31
  6
Continuous
 62
     7
100
AcDbCircle
 10
125.4908880622906
 20
178.0823310041038
 30
0.0
 40
2.046234607696533
100
AcDbArc
 50
355.8272195458405
 51
359.1292822957044
1001
PHOENIX7010
1002
{
1070
    41
1040
0.5
1002
}
  0
ARC
  5
20A
330
18
100
AcDbEntity
  8
31
  6
Continuous
 62
     7
100
AcDbCircle
 10
125.5120062263531
 20
178.0803778791038
 30
0.0
 40
2.025063037872314
100
AcDbArc
 50
359.1762487888339
 51
2.53329467773466
1001
PHOENIX7010
1002
{
1070
    41
1040
0.5
1002
}
  0
ARC
  5
20B
330
18
100
AcDbEntity
  8
31
  6
Continuous
 62
     7
100
AcDbCircle
 10
125.5613226326031
 20
178.0783026837913
 30
0.0
 40
1.975861072540283
100
AcDbArc
 50
2.656646728517405
 51
6.124847412109965
1001
PHOENIX7010
1002
{
1070
    41
1040
0.5
1002
}
  0
ARC
  5
20C
330
18
100
AcDbEntity
  8
31
  6
Continuous
 62
     7
100
AcDbCircle
 10
125.5109075935406
 20
178.079706492385
 30
0.0
 40
2.025918006896972
100
AcDbArc
 50
5.932159423829655
 51
9.326110839845307
1001
PHOENIX7010
1002
{
1070
    41
1040
0.5
1002
}
  0
ARC
  5
20D
330
18
100
AcDbEntity
  8
31
  6
Continuous
 62
     7
100
AcDbCircle
 10
125.3802923591656
 20
178.0545600080101
 30
0.0
 40
2.158802986145019
100
AcDbArc
 50
9.423187255859787
 51
12.61822509765765
1001
PHOENIX7010
1002
{
1070
    41
1040
0.5
1002
}
  0
ARC
  5
20E
330
18
100
AcDbEntity
  8
31
  6
Continuous
 62
     7
100
AcDbCircle
 10
125.5590032966656
 20
178.0758917951194
 30
0.0
 40
1.979932308197021
100
AcDbArc
 50
13.14559936523479
 51
16.71759033203115
1001
PHOENIX7010
1002
{
1070
    41
1040
0.5
1002
}
  0
ARC
  5
20F
330
18
100
AcDbEntity
  8
31
  6
Continuous
 62
     7
100
AcDbCircle
 10
125.8368353279156
 20
178.1535590314476
 30
0.0
 40
1.691409707069396
100
AcDbArc
 50
16.90679931640683
 51
21.23599243164022
1001
PHOENIX7010
1002
{
1070
    41
1040
0.5
1002
}
  0
ARC
  5
210
330
18
100
AcDbEntity
  8
31
  6
Continuous
 62
     7
100
AcDbCircle
 10
125.4050726326031
 20
178.0529120587913
 30
0.0
 40
2.131231069564819
100
AcDbArc
 50
19.55218505859275
 51
22.82147216796961
1001
PHOENIX7010
1002
{
1070
    41
1040
0.5
1002
}
  0
LINE
  5
211
330
18
100
AcDbEntity
  8
31
  6
Continuous
 62
     7
100
AcDbLine
 10
127.3695501716656
 20
178.8795264386741
 30
0.0
 11
127.3256048591656
 21
178.9818213605491
 31
0.0
1001
PHOENIX7010
1002
{
1070
    41
1040
0.5
1002
}
  0
ARC
  5
212
330
18
100
AcDbEntity
  8
31
  6
Continuous
 62
     7
100
AcDbCircle
 10
125.7860540779156
 20
178.1581366681663
 30
0.0
 40
1.746058702468872
100
AcDbArc
 50
28.14794921875135
 51
32.82720947265658
1001
PHOENIX7010
1002
{
1070
    41
1040
0.5
1002
}
  0
ARC
  5
213
330
18
100
AcDbEntity
  8
31
  6
Continuous
 62
     7
100
AcDbCircle
 10
125.9519476326031
 20
178.2731574201194
 30
0.0
 40
1.544319748878479
100
AcDbArc
 50
32.57833862304744
 51
40.75006103515731
1001
PHOENIX7010
1002
{
1070
    41
1040
0.5
1002
}
  0
ARC
  5
214
330
18
100
AcDbEntity
  8
31
  6
Continuous
 62
     7
100
AcDbCircle
 10
123.8224310310406
 20
176.7531684064475
 30
0.0
 40
4.156609535217285
100
AcDbArc
 50
37.45965576171837
 51
41.45462036132893
1001
PHOENIX7010
1002
{
1070
    41
1040
0.5
1002
}
  0
LINE
  5
4F0
102
{ACAD_REACTORS
330
4FF
102
}
330
18
100
AcDbEntity
  8
0
  6
Continuous
 62
     1
100
AcDbLine
 10
230.0
 20
5.000000000000113
 30
0.0
 11
230.0
 21
1.000000000000113
 31
0.0
1001
PHOENIX7010
1002
{
1070
    62
1070
     1
1070
    41
1040
1.0
1002
}
  0
LINE
  5
4F1
102
{ACAD_REACTORS
330
4FF
102
}
330
18
100
AcDbEntity
  8
0
  6
Continuous
 62
     3
100
AcDbLine
 10
415.0
 20
5.000000000000113
 30
0.0
 11
20.0
 21
5.000000000000113
 31
0.0
1001
PHOENIX7010
1002
{
1070
    62
1070
     3
1070
    41
1040
1.0
1002
}
  0
LINE
  5
4F2
102
{ACAD_REACTORS
330
4FF
102
}
330
18
100
AcDbEntity
  8
0
  6
Continuous
 62
     1
100
AcDbLine
 10
125.0
 20
296.0000000000001
 30
0.0
 11
125.0
 21
292.0000000000001
 31
0.0
1001
PHOENIX7010
1002
{
1070
    62
1070
     1
1070
    41
1040
1.0
1002
}
  0
LINE
  5
4F3
102
{ACAD_REACTORS
330
4FF
102
}
330
18
100
AcDbEntity
  8
0
  6
Continuous
 62
     1
100
AcDbLine
 10
230.0
 20
296.0000000000001
 30
0.0
 11
230.0
 21
292.0000000000001
 31
0.0
1001
PHOENIX7010
1002
{
1070
    62
1070
     1
1070
    41
1040
1.0
1002
}
  0
LINE
  5
4F4
102
{ACAD_REACTORS
330
4FF
102
}
330
18
100
AcDbEntity
  8
0
  6
Continuous
 62
     1
100
AcDbLine
 10
125.0
 20
5.000000000000113
 30
0.0
 11
125.0
 21
1.000000000000113
 31
0.0
1001
PHOENIX7010
1002
{
1070
    62
1070
     1
1070
    41
1040
1.0
1002
}
  0
LINE
  5
4F5
102
{ACAD_REACTORS
330
4FF
102
}
330
18
100
AcDbEntity
  8
0
  6
Continuous
 62
     1
100
AcDbLine
 10
419.0
 20
1.000000000000113
 30
0.0
 11
1.0
 21
1.000000000000113
 31
0.0
1001
PHOENIX7010
1002
{
1070
    62
1070
     1
1070
    41
1040
1.0
1002
}
  0
LINE
  5
4F6
102
{ACAD_REACTORS
330
4FF
102
}
330
18
100
AcDbEntity
  8
0
  6
Continuous
 62
     1
100
AcDbLine
 10
1.0
 20
1.000000000000113
 30
0.0
 11
1.0
 21
296.0000000000001
 31
0.0
1001
PHOENIX7010
1002
{
1070
    62
1070
     1
1070
    41
1040
1.0
1002
}
  0
LINE
  5
4F7
102
{ACAD_REACTORS
330
4FF
102
}
330
18
100
AcDbEntity
  8
0
  6
Continuous
 62
     1
100
AcDbLine
 10
1.0
 20
296.0000000000001
 30
0.0
 11
419.0
 21
296.0000000000001
 31
0.0
1001
PHOENIX7010
1002
{
1070
    62
1070
     1
1070
    41
1040
1.0
1002
}
  0
LINE
  5
4F8
102
{ACAD_REACTORS
330
4FF
102
}
330
18
100
AcDbEntity
  8
0
  6
Continuous
 62
     1
100
AcDbLine
 10
419.0
 20
296.0000000000001
 30
0.0
 11
419.0
 21
1.000000000000113
 31
0.0
1001
PHOENIX7010
1002
{
1070
    62
1070
     1
1070
    41
1040
1.0
1002
}
  0
LINE
  5
4F9
102
{ACAD_REACTORS
330
4FF
102
}
330
18
100
AcDbEntity
  8
0
  6
Continuous
 62
     3
100
AcDbLine
 10
20.0
 20
5.000000000000113
 30
0.0
 11
20.0
 21
292.0000000000001
 31
0.0
1001
PHOENIX7010
1002
{
1070
    62
1070
     3
1070
    41
1040
1.0
1002
}
  0
LINE
  5
4FA
102
{ACAD_REACTORS
330
4FF
102
}
330
18
100
AcDbEntity
  8
0
  6
Continuous
 62
     3
100
AcDbLine
 10
20.0
 20
292.0000000000001
 30
0.0
 11
415.0
 21
292.0000000000001
 31
0.0
1001
PHOENIX7010
1002
{
1070
    62
1070
     3
1070
    41
1040
1.0
1002
}
  0
LINE
  5
4FB
102
{ACAD_REACTORS
330
4FF
102
}
330
18
100
AcDbEntity
  8
0
  6
Continuous
 62
     3
100
AcDbLine
 10
415.0
 20
292.0000000000001
 30
0.0
 11
415.0
 21
5.000000000000113
 31
0.0
1001
PHOENIX7010
1002
{
1070
    62
1070
     3
1070
    41
1040
1.0
1002
}
  0
MTEXT
  5
4FC
102
{ACAD_REACTORS
330
4FF
102
}
330
18
100
AcDbEntity
  8
0
  6
Continuous
 62
     7
370
    50
100
AcDbMText
 10
19.70248718641096
 20
55.39351207913341
 30
0.0
 40
2.0
 41
0.0
 71
     7
 72
     5
  1
{\T1.1;\C1;"Schutzvermerk nach DIN ISO 16016 beachten" \Q20;"Please pay attention to copyright note DIN ISO 16016"}
 11
0.0000000000000002
 21
1.0
 31
0.0
 73
     1
 44
1.0
1001
PHOENIX7010
1002
{
1070
    41
1040
1.0
1002
}
1001
ACAD
1000
MTEXTBEGIN
1070
    73
1070
     1
1070
    44
1040
1.0
1070
    74
1070
     0
1000
MTEXTEND
  0
INSERT
  5
4FD
102
{ACAD_REACTORS
330
4FF
102
}
330
18
100
AcDbEntity
  8
0
  6
Continuous
 62
     1
100
AcDbBlockReference
  2
PH_GRPBLK
 10
230.0
 20
5.000000000000113
 30
0.0
1001
PHOENIX7010
1002
{
1070
    41
1040
1.0
1002
}
  0
HATCH
  5
504
102
{ACAD_REACTORS
330
54C
102
}
330
18
100
AcDbEntity
  8
0
  6
Continuous
 62
     1
370
    25
100
AcDbHatch
 10
0.0
 20
0.0
 30
0.0
210
0.0
220
0.0
230
1.0
  2
_U
 70
     0
 71
     1
 91
        1
 92
        0
 93
        5
 72
     1
 10
407.4334749940253
 20
35.16453811398049
 11
400.7334749940254
 21
27.36453811398042
 72
     1
 10
400.7334749940254
 20
27.36453811398042
 11
412.7334749940255
 21
27.36453811398042
 72
     1
 10
412.7334749940255
 20
27.36453811398042
 11
412.7334749940255
 21
35.16453811398049
 72
     1
 10
412.7334749940255
 20
35.16453811398037
 11
407.4334749940253
 21
28.26453811398051
 72
     1
 10
407.4334749940253
 20
28.26453811398051
 11
407.4334749940253
 21
35.16453811398049
 97
        1
330
547
 75
     0
 76
     0
 52
45.0
 41
0.1
 77
     0
 78
     1
 53
45.0
 43
0.0
 44
-32.08885297207042
 45
-0.0707106781186548
 46
0.0707106781186548
 79
     0
 98
        1
 10
0.0
 20
-32.08885297207042
1001
PHOENIX7010
1002
{
1070
    41
1040
1.0
1002
}
  0
HATCH
  5
505
102
{ACAD_REACTORS
330
54C
102
}
330
18
100
AcDbEntity
  8
0
  6
Continuous
 62
     1
370
    25
100
AcDbHatch
 10
0.0
 20
0.0
 30
0.0
210
0.0
220
0.0
230
1.0
  2
_U
 70
     0
 71
     1
 91
        1
 92
        0
 93
        3
 72
     1
 10
399.8834749940256
 20
27.36453811398042
 11
399.8834749940256
 21
31.51453811398039
 72
     1
 10
399.8834749940256
 20
31.51453811398039
 11
404.0334749940257
 21
31.51453811398039
 72
     2
 10
399.8834749940256
 20
31.51453811398039
 40
4.149999999999977
 50
0.0000000000001962
 51
270.0
 73
     1
 97
        1
330
548
 75
     0
 76
     0
 52
45.0
 41
0.65
 77
     0
 78
     1
 53
45.0
 43
0.0
 44
-32.08885297207042
 45
-0.4596194077712559
 46
0.459619407771256
 79
     0
 98
        1
 10
0.0
 20
-32.08885297207042
1001
PHOENIX7010
1002
{
1070
    41
1040
1.0
1002
}
  0
LINE
  5
506
102
{ACAD_REACTORS
330
54C
102
}
330
18
100
AcDbEntity
  8
0
  6
Continuous
 62
     7
370
    50
100
AcDbLine
 10
400.7334749940254
 20
27.36453811398042
 30
0.0
 11
412.7334749940255
 21
27.36453811398042
 31
0.0
1001
PHOENIX7010
1002
{
1070
    41
1040
1.0
1002
}
  0
LINE
  5
507
102
{ACAD_REACTORS
330
54C
102
}
330
18
100
AcDbEntity
  8
0
  6
Continuous
 62
     7
370
    50
100
AcDbLine
 10
412.7334749940255
 20
27.36453811398042
 30
0.0
 11
412.7334749940255
 21
35.16453811398037
 31
0.0
1001
PHOENIX7010
1002
{
1070
    41
1040
1.0
1002
}
  0
LINE
  5
508
102
{ACAD_REACTORS
330
54C
102
}
330
18
100
AcDbEntity
  8
0
  6
Continuous
 62
     7
370
    50
100
AcDbLine
 10
407.4334749940253
 20
28.26453811398039
 30
0.0
 11
407.4334749940253
 21
35.16453811398037
 31
0.0
1001
PHOENIX7010
1002
{
1070
    41
1040
1.0
1002
}
  0
LINE
  5
509
102
{ACAD_REACTORS
330
54C
102
}
330
18
100
AcDbEntity
  8
0
  6
Continuous
 62
     7
370
    50
100
AcDbLine
 10
407.4334749940253
 20
35.16453811398037
 30
0.0
 11
400.7334749940254
 21
27.36453811398042
 31
0.0
1001
PHOENIX7010
1002
{
1070
    41
1040
1.0
1002
}
  0
LINE
  5
50A
102
{ACAD_REACTORS
330
54C
102
}
330
18
100
AcDbEntity
  8
0
  6
Continuous
 62
     7
370
    50
100
AcDbLine
 10
412.7334749940255
 20
35.16453811398037
 30
0.0
 11
407.4334749940253
 21
28.26453811398039
 31
0.0
1001
PHOENIX7010
1002
{
1070
    41
1040
1.0
1002
}
  0
INSERT
  5
50B
102
{ACAD_REACTORS
330
54C
102
}
330
18
100
AcDbEntity
  8
0
  6
Continuous
 62
     1
370
    25
100
AcDbBlockReference
  2
PH_GRPBLK
 10
400.7334749940254
 20
27.36453811398042
 30
0.0
1001
PHOENIX7010
1002
{
1070
    41
1040
1.0
1002
}
  0
MTEXT
  5
50C
102
{ACAD_REACTORS
330
54D
102
}
330
18
100
AcDbEntity
  8
0
  6
Continuous
 62
     7
370
    50
100
AcDbMText
 10
381.0842366554657
 20
17.88346060003152
 30
0.0
 40
1.6
 41
0.0
 71
     7
 72
     5
  1
{\fArial|b0|i0|c0|p34;\W1.1;\C1;A Phoenix Mecano Company}
 73
     1
 44
1.0
1001
PHOENIX7010
1002
{
1070
    41
1040
1.0
1002
}
1001
ACAD
1000
MTEXTBEGIN
1070
    73
1070
     1
1070
    44
1040
1.0
1070
    74
1070
     0
1000
MTEXTEND
  0
MTEXT
  5
50D
102
{ACAD_XDICTIONARY
360
9D4
102
}
102
{ACAD_REACTORS
330
54D
102
}
330
18
100
AcDbEntity
  8
0
  6
Continuous
 62
     7
370
    50
100
AcDbMText
 10
393.565880717586
 20
21.46517927327739
 30
0.0
 40
3.7
 41
0.0
 71
     7
 72
     5
  1
{\fArial|b1|i0|c0|p34;\W1.1;BOPLA}
 73
     1
 44
1.135135135135135
1001
PHOENIX7010
1002
{
1070
    41
1040
1.0
1002
}
1001
ACAD
1000
MTEXTBEGIN
1070
    73
1070
     1
1070
    44
1040
1.135135135135135
1070
    74
1070
     0
1000
MTEXTEND
  0
INSERT
  5
50E
102
{ACAD_REACTORS
330
54D
102
}
330
18
100
AcDbEntity
  8
0
  6
Continuous
 62
     7
370
    50
100
AcDbBlockReference
  2
PH_GRPBLK
 10
400.7334749940254
 20
27.36453811398042
 30
0.0
1001
PHOENIX7010
1002
{
1070
    41
1040
1.0
1002
}
  0
MTEXT
  5
50F
102
{ACAD_REACTORS
330
54E
102
}
330
18
100
AcDbEntity
  8
0
  6
Continuous
 62
     5
370
    35
100
AcDbMText
 10
318.9304981780733
 20
52.18090043987126
 30
0.0
 40
3.5
 41
0.0
 71
     7
 72
     5
  1
{\C7;Katalogzeichnung/\Q20;Catalogue drawing}
 73
     1
 44
1.0
1001
PHOENIX7010
1002
{
1070
    41
1040
1.0
1002
}
1001
ACAD
1000
MTEXTBEGIN
1070
    73
1070
     1
1070
    44
1040
1.0
1070
    74
1070
     0
1000
MTEXTEND
  0
MTEXT
  5
510
102
{ACAD_REACTORS
330
54E
102
}
330
18
100
AcDbEntity
  8
0
  6
Continuous
 62
     5
370
    35
100
AcDbMText
 10
318.9304981780733
 20
59.18090043987127
 30
0.0
 40
4.0
 41
0.0
 71
     7
 72
     5
  1
{\C7;PF/M 000 . . - OD}
 73
     1
 44
1.0
1001
PHOENIX7010
1002
{
1070
    41
1040
1.0
1002
}
1001
ACAD
1000
MTEXTBEGIN
1070
    73
1070
     1
1070
    44
1040
1.0
1070
    74
1070
     0
1000
MTEXTEND
  0
MTEXT
  5
511
102
{ACAD_REACTORS
330
54E
102
}
330
18
100
AcDbEntity
  8
0
  6
Continuous
 62
     5
370
    35
100
AcDbMText
 10
318.9304981780733
 20
66.18090043987127
 30
0.0
 40
4.0
 41
0.0
 71
     7
 72
     5
  1
{\C7;Interzoll Modul}
 73
     1
 44
1.0
1001
PHOENIX7010
1002
{
1070
    41
1040
1.0
1002
}
1001
ACAD
1000
MTEXTBEGIN
1070
    73
1070
     1
1070
    44
1040
1.0
1070
    74
1070
     0
1000
MTEXTEND
  0
MTEXT
  5
512
102
{ACAD_REACTORS
330
54E
102
}
330
18
100
AcDbEntity
  8
0
  6
Continuous
 62
     5
370
    35
100
AcDbMText
 10
340.3074630969177
 20
95.1987580068237
 30
0.0
 40
4.0
 41
0.0
 71
     7
 72
     5
  1
{\C7;2:1}
 73
     1
 44
1.0
1001
PHOENIX7010
1002
{
1070
    41
1040
1.0
1002
}
1001
ACAD
1000
MTEXTBEGIN
1070
    73
1070
     1
1070
    44
1040
1.0
1070
    74
1070
     0
1000
MTEXTEND
  0
MTEXT
  5
513
102
{ACAD_REACTORS
330
54E
102
}
330
18
100
AcDbEntity
  8
0
  6
Continuous
 62
     5
370
    35
100
AcDbMText
 10
319.2942762589885
 20
94.24669079255114
 30
0.0
 40
2.5
 41
0.0
 71
     7
 72
     5
  1
{\C1;Maßstab/\P\Q20;Scale:}
 73
     1
 44
1.0
1001
PHOENIX7010
1002
{
1070
    41
1040
1.0
1002
}
1001
ACAD
1000
MTEXTBEGIN
1070
    73
1070
     1
1070
    44
1040
1.0
1070
    74
1070
     0
1000
MTEXTEND
  0
MTEXT
  5
514
102
{ACAD_REACTORS
330
54E
102
}
330
18
100
AcDbEntity
  8
0
  6
Continuous
 62
     5
370
    35
100
AcDbMText
 10
319.5702130763932
 20
86.578461793006
 30
0.0
 40
3.0
 41
0.0
 71
     7
 72
     5
  1
Zeichnungs-Nr. / {\Q20;Drawing-No.:}
 73
     1
 44
1.0
1001
PHOENIX7010
1002
{
1070
    41
1040
1.0
1002
}
1001
ACAD
1000
MTEXTBEGIN
1070
    73
1070
     1
1070
    44
1040
1.0
1070
    74
1070
     0
1000
MTEXTEND
  0
MTEXT
  5
515
102
{ACAD_REACTORS
330
54E
102
}
330
18
100
AcDbEntity
  8
0
  6
Continuous
 62
     5
370
    35
100
AcDbMText
 10
340.681094216935
 20
80.43630467405568
 30
0.0
 40
4.0
 41
0.0
 71
     7
 72
     5
  1
{\C7;3K 5315.021.02}
 73
     1
 44
1.0
1001
PHOENIX7010
1002
{
1070
    41
1040
1.0
1002
}
1001
ACAD
1000
MTEXTBEGIN
1070
    73
1070
     1
1070
    44
1040
1.0
1070
    74
1070
     0
1000
MTEXTEND
  0
MTEXT
  5
516
102
{ACAD_REACTORS
330
54E
102
}
330
18
100
AcDbEntity
  8
0
  6
Continuous
 62
     5
370
    35
100
AcDbMText
 10
318.8800602381664
 20
72.42896167163713
 30
0.0
 40
4.0
 41
0.0
 71
     7
 72
     5
  1
{\C7;Artikel / \Q20;Article:}
 73
     1
 44
1.0
1001
PHOENIX7010
1002
{
1070
    41
1040
1.0
1002
}
1001
ACAD
1000
MTEXTBEGIN
1070
    73
1070
     1
1070
    44
1040
1.0
1070
    74
1070
     0
1000
MTEXTEND
  0
MTEXT
  5
517
102
{ACAD_REACTORS
330
54E
102
}
330
18
100
AcDbEntity
  8
0
  6
Continuous
 62
     5
370
    35
100
AcDbMText
 10
329.5918340418984
 20
15.32304279191089
 30
0.0
 40
2.0
 41
0.0
 71
     7
 72
     5
  1
{\C1;Datum/\P\Q20;Date:}
 73
     1
 44
1.0
1001
PHOENIX7010
1002
{
1070
    41
1040
1.0
1002
}
1001
ACAD
1000
MTEXTBEGIN
1070
    73
1070
     1
1070
    44
1040
1.0
1070
    74
1070
     0
1000
MTEXTEND
  0
MTEXT
  5
518
102
{ACAD_REACTORS
330
54E
102
}
330
18
100
AcDbEntity
  8
0
  6
Continuous
 62
     5
370
    35
100
AcDbMText
 10
316.167758256943
 20
15.32303913053624
 30
0.0
 40
2.0
 41
0.0
 71
     7
 72
     5
  1
{\C1;Ä.Nr/\P\Q20;Alt-No.:}
 73
     1
 44
1.0
1001
PHOENIX7010
1002
{
1070
    41
1040
1.0
1002
}
1001
ACAD
1000
MTEXTBEGIN
1070
    73
1070
     1
1070
    44
1040
1.0
1070
    74
1070
     0
1000
MTEXTEND
  0
MTEXT
  5
519
102
{ACAD_REACTORS
330
54E
102
}
330
18
100
AcDbEntity
  8
0
  6
Continuous
 62
     5
370
    35
100
AcDbMText
 10
342.2178658257171
 20
10.60592166613935
 30
0.0
 40
2.5
 41
0.0
 71
     7
 72
     5
  1
2 901 831
 73
     1
 44
1.0
1001
PHOENIX7010
1002
{
1070
    41
1040
1.0
1002
}
1001
ACAD
1000
MTEXTBEGIN
1070
    73
1070
     1
1070
    44
1040
1.0
1070
    74
1070
     0
1000
MTEXTEND
  0
MTEXT
  5
51A
102
{ACAD_REACTORS
330
54E
102
}
330
18
100
AcDbEntity
  8
0
  6
Continuous
 62
     5
370
    35
100
AcDbMText
 10
316.5289912646938
 20
10.49475527098116
 30
0.0
 40
2.5
 41
0.0
 71
     7
 72
     5
  1
DISK:
 73
     1
 44
1.0
1001
PHOENIX7010
1002
{
1070
    41
1040
1.0
1002
}
1001
ACAD
1000
MTEXTBEGIN
1070
    73
1070
     1
1070
    44
1040
1.0
1070
    74
1070
     0
1000
MTEXTEND
  0
MTEXT
  5
51B
102
{ACAD_REACTORS
330
54E
102
}
330
18
100
AcDbEntity
  8
0
  6
Continuous
 62
     5
370
    35
100
AcDbMText
 10
342.2178658257171
 20
6.248887523187704
 30
0.0
 40
2.5
 41
0.0
 71
     7
 72
     5
  1
18.06.99 HR
 73
     1
 44
1.0
1001
PHOENIX7010
1002
{
1070
    41
1040
1.0
1002
}
1001
ACAD
1000
MTEXTBEGIN
1070
    73
1070
     1
1070
    44
1040
1.0
1070
    74
1070
     0
1000
MTEXTEND
  0
MTEXT
  5
51C
102
{ACAD_REACTORS
330
54E
102
}
330
18
100
AcDbEntity
  8
0
  6
Continuous
 62
     5
370
    35
100
AcDbMText
 10
316.5289912646938
 20
6.248887523187704
 30
0.0
 40
2.5
 41
0.0
 71
     7
 72
     5
  1
Datum/{\Q20;Date:}
 73
     1
 44
1.0
1001
PHOENIX7010
1002
{
1070
    41
1040
1.0
1002
}
1001
ACAD
1000
MTEXTBEGIN
1070
    73
1070
     1
1070
    44
1040
1.0
1070
    74
1070
     0
1000
MTEXTEND
  0
LINE
  5
51D
102
{ACAD_REACTORS
330
54E
102
}
330
18
100
AcDbEntity
  8
0
  6
Continuous
 62
     5
370
    35
100
AcDbLine
 10
314.9999999999998
 20
14.50000000000023
 30
0.0
 11
415.0
 21
14.50000000000023
 31
0.0
1001
PHOENIX7010
1002
{
1070
    41
1040
1.0
1002
}
  0
LINE
  5
51E
102
{ACAD_REACTORS
330
54E
102
}
330
18
100
AcDbEntity
  8
0
  6
Continuous
 62
     5
100
AcDbLine
 10
405.4999999999999
 20
92.50000000000012
 30
0.0
 11
405.4999999999999
 21
99.50000000000011
 31
0.0
1001
PHOENIX7010
1002
{
1070
    62
1070
     5
1070
    41
1040
1.0
1002
}
  0
LINE
  5
51F
102
{ACAD_REACTORS
330
54E
102
}
330
18
100
AcDbEntity
  8
0
  6
ACAD_ISO04W100
 62
     1
 48
0.1451612903225806
100
AcDbLine
 10
410.5
 20
91.50000000000011
 30
0.0
 11
410.5
 21
100.5000000000001
 31
0.0
1001
PHOENIX7010
1002
{
1070
    62
1070
     1
1070
    41
1040
1.0
1002
}
  0
CIRCLE
  5
520
102
{ACAD_REACTORS
330
54E
102
}
330
18
100
AcDbEntity
  8
0
  6
Continuous
 62
     5
100
AcDbCircle
 10
410.5
 20
96.00000000000012
 30
0.0
 40
1.75
1001
PHOENIX7010
1002
{
1070
    62
1070
     5
1070
    41
1040
1.0
1002
}
  0
CIRCLE
  5
521
102
{ACAD_REACTORS
330
54E
102
}
330
18
100
AcDbEntity
  8
0
  6
Continuous
 62
     5
100
AcDbCircle
 10
410.5
 20
96.00000000000012
 30
0.0
 40
3.5
1001
PHOENIX7010
1002
{
1070
    62
1070
     5
1070
    41
1040
1.0
1002
}
  0
LINE
  5
522
102
{ACAD_REACTORS
330
54E
102
}
330
18
100
AcDbEntity
  8
0
  6
Continuous
 62
     5
100
AcDbLine
 10
398.5
 20
94.25000000000011
 30
0.0
 11
398.5
 21
97.75000000000012
 31
0.0
1001
PHOENIX7010
1002
{
1070
    62
1070
     5
1070
    41
1040
1.0
1002
}
  0
LINE
  5
523
102
{ACAD_REACTORS
330
54E
102
}
330
18
100
AcDbEntity
  8
0
  6
ACAD_ISO04W100
 62
     1
 48
0.282258064516129
100
AcDbLine
 10
415.0
 20
96.00000000000012
 30
0.0
 11
397.5
 21
96.00000000000012
 31
0.0
1001
PHOENIX7010
1002
{
1070
    62
1070
     1
1070
    41
1040
1.0
1002
}
  0
LINE
  5
524
102
{ACAD_REACTORS
330
54E
102
}
330
18
100
AcDbEntity
  8
0
  6
Continuous
 62
     5
100
AcDbLine
 10
405.4999999999999
 20
92.50000000000012
 30
0.0
 11
398.5
 21
94.25000000000011
 31
0.0
1001
PHOENIX7010
1002
{
1070
    62
1070
     5
1070
    41
1040
1.0
1002
}
  0
LINE
  5
525
102
{ACAD_REACTORS
330
54E
102
}
330
18
100
AcDbEntity
  8
0
  6
Continuous
 62
     5
100
AcDbLine
 10
405.4999999999999
 20
99.50000000000011
 30
0.0
 11
398.5
 21
97.75000000000012
 31
0.0
1001
PHOENIX7010
1002
{
1070
    62
1070
     5
1070
    41
1040
1.0
1002
}
  0
ARC
  5
526
102
{ACAD_REACTORS
330
54E
102
}
330
18
100
AcDbEntity
  8
0
  6
Continuous
 62
     5
100
AcDbCircle
 10
317.4999999999998
 20
89.00000000000011
 30
0.0
 40
2.5
100
AcDbArc
 50
90.0
 51
180.0
1001
PHOENIX7010
1002
{
1070
    62
1070
     5
1070
    41
1040
1.0
1002
}
  0
ARC
  5
527
102
{ACAD_REACTORS
330
54E
102
}
330
18
100
AcDbEntity
  8
0
  6
Continuous
 62
     5
100
AcDbCircle
 10
317.4999999999998
 20
100.0000000000001
 30
0.0
 40
2.5
100
AcDbArc
 50
90.0
 51
180.0
1001
PHOENIX7010
1002
{
1070
    62
1070
     5
1070
    41
1040
1.0
1002
}
  0
LINE
  5
528
102
{ACAD_REACTORS
330
54E
102
}
330
18
100
AcDbEntity
  8
0
  6
Continuous
 62
     5
100
AcDbLine
 10
415.0
 20
91.50000000000011
 30
0.0
 11
317.4999999999998
 21
91.50000000000011
 31
0.0
1001
PHOENIX7010
1002
{
1070
    62
1070
     5
1070
    41
1040
1.0
1002
}
  0
LINE
  5
529
102
{ACAD_REACTORS
330
54E
102
}
330
18
100
AcDbEntity
  8
0
  6
Continuous
 62
     5
100
AcDbLine
 10
415.0
 20
102.5000000000001
 30
0.0
 11
317.4999999999998
 21
102.5000000000001
 31
0.0
1001
PHOENIX7010
1002
{
1070
    62
1070
     5
1070
    41
1040
1.0
1002
}
  0
LINE
  5
52A
102
{ACAD_REACTORS
330
54E
102
}
330
18
100
AcDbEntity
  8
0
  6
Continuous
 62
     5
100
AcDbLine
 10
350.0
 20
48.00000000000022
 30
0.0
 11
350.0
 21
14.50000000000023
 31
0.0
1001
PHOENIX7010
1002
{
1070
    62
1070
     5
1070
    41
1040
1.0
1002
}
  0
TEXT
  5
52B
102
{ACAD_REACTORS
330
54E
102
}
330
18
100
AcDbEntity
  8
0
  6
Continuous
 62
     1
100
AcDbText
 10
328.9999996997321
 20
42.74999981501366
 30
0.0
 40
2.0
  1
-
 41
1.5
100
AcDbText
1001
PHOENIX7010
1002
{
1070
    62
1070
     1
1070
    41
1040
1.0
1002
}
  0
TEXT
  5
52C
102
{ACAD_REACTORS
330
54E
102
}
330
18
100
AcDbEntity
  8
0
  6
Continuous
 62
     1
100
AcDbText
 10
328.9999996997321
 20
40.24999981501366
 30
0.0
 40
2.0
  1
-
 41
1.5
100
AcDbText
1001
PHOENIX7010
1002
{
1070
    62
1070
     1
1070
    41
1040
1.0
1002
}
  0
TEXT
  5
52D
102
{ACAD_REACTORS
330
54E
102
}
330
18
100
AcDbEntity
  8
0
  6
Continuous
 62
     1
100
AcDbText
 10
328.9999996997321
 20
45.24999981501366
 30
0.0
 40
2.0
  1
-
 41
1.5
100
AcDbText
1001
PHOENIX7010
1002
{
1070
    62
1070
     1
1070
    41
1040
1.0
1002
}
  0
TEXT
  5
52E
102
{ACAD_REACTORS
330
54E
102
}
330
18
100
AcDbEntity
  8
0
  6
Continuous
 62
     1
100
AcDbText
 10
315.9999996997324
 20
42.74999981501366
 30
0.0
 40
2.0
  1
-
 41
1.5
100
AcDbText
1001
PHOENIX7010
1002
{
1070
    62
1070
     1
1070
    41
1040
1.0
1002
}
  0
TEXT
  5
52F
102
{ACAD_REACTORS
330
54E
102
}
330
18
100
AcDbEntity
  8
0
  6
Continuous
 62
     1
100
AcDbText
 10
315.9999996997324
 20
40.24999981501366
 30
0.0
 40
2.0
  1
-
 41
1.5
100
AcDbText
1001
PHOENIX7010
1002
{
1070
    62
1070
     1
1070
    41
1040
1.0
1002
}
  0
TEXT
  5
530
102
{ACAD_REACTORS
330
54E
102
}
330
18
100
AcDbEntity
  8
0
  6
Continuous
 62
     1
100
AcDbText
 10
315.9999996997324
 20
45.24999981501366
 30
0.0
 40
2.0
  1
-
 41
1.5
100
AcDbText
1001
PHOENIX7010
1002
{
1070
    62
1070
     1
1070
    41
1040
1.0
1002
}
  0
ARC
  5
531
102
{ACAD_REACTORS
330
54E
102
}
330
18
100
AcDbEntity
  8
0
  6
Continuous
 62
     5
100
AcDbCircle
 10
317.4999999999998
 20
45.50000000000022
 30
0.0
 40
2.5
100
AcDbArc
 50
90.0
 51
180.0
1001
PHOENIX7010
1002
{
1070
    62
1070
     5
1070
    41
1040
1.0
1002
}
  0
ARC
  5
532
102
{ACAD_REACTORS
330
54E
102
}
330
18
100
AcDbEntity
  8
0
  6
Continuous
 62
     5
100
AcDbCircle
 10
317.4999999999998
 20
76.00000000000022
 30
0.0
 40
2.5
100
AcDbArc
 50
90.0
 51
180.0
1001
PHOENIX7010
1002
{
1070
    62
1070
     5
1070
    41
1040
1.0
1002
}
  0
TEXT
  5
533
102
{ACAD_REACTORS
330
54E
102
}
330
18
100
AcDbEntity
  8
0
  6
Continuous
 62
     1
100
AcDbText
 10
328.9999996997321
 20
25.24999981501367
 30
0.0
 40
2.0
  1
-
 41
1.5
100
AcDbText
1001
PHOENIX7010
1002
{
1070
    62
1070
     1
1070
    41
1040
1.0
1002
}
  0
TEXT
  5
534
102
{ACAD_REACTORS
330
54E
102
}
330
18
100
AcDbEntity
  8
0
  6
Continuous
 62
     1
100
AcDbText
 10
328.9999996997321
 20
22.74999981501367
 30
0.0
 40
2.0
  1
07.03.2014
 41
1.5
100
AcDbText
1001
PHOENIX7010
1002
{
1070
    62
1070
     1
1070
    41
1040
1.0
1002
}
  0
TEXT
  5
535
102
{ACAD_REACTORS
330
54E
102
}
330
18
100
AcDbEntity
  8
0
  6
Continuous
 62
     1
100
AcDbText
 10
328.9999996997321
 20
30.24999981501367
 30
0.0
 40
2.0
  1
-
 41
1.5
100
AcDbText
1001
PHOENIX7010
1002
{
1070
    62
1070
     1
1070
    41
1040
1.0
1002
}
  0
TEXT
  5
536
102
{ACAD_REACTORS
330
54E
102
}
330
18
100
AcDbEntity
  8
0
  6
Continuous
 62
     1
100
AcDbText
 10
328.9999996997321
 20
27.74999981501367
 30
0.0
 40
2.0
  1
-
 41
1.5
100
AcDbText
1001
PHOENIX7010
1002
{
1070
    62
1070
     1
1070
    41
1040
1.0
1002
}
  0
TEXT
  5
537
102
{ACAD_REACTORS
330
54E
102
}
330
18
100
AcDbEntity
  8
0
  6
Continuous
 62
     1
100
AcDbText
 10
328.9999996997321
 20
32.74999981501367
 30
0.0
 40
2.0
  1
-
 41
1.5
100
AcDbText
1001
PHOENIX7010
1002
{
1070
    62
1070
     1
1070
    41
1040
1.0
1002
}
  0
TEXT
  5
538
102
{ACAD_REACTORS
330
54E
102
}
330
18
100
AcDbEntity
  8
0
  6
Continuous
 62
     1
100
AcDbText
 10
328.9999996997321
 20
35.24999981501367
 30
0.0
 40
2.0
  1
-
 41
1.5
100
AcDbText
1001
PHOENIX7010
1002
{
1070
    62
1070
     1
1070
    41
1040
1.0
1002
}
  0
TEXT
  5
539
102
{ACAD_REACTORS
330
54E
102
}
330
18
100
AcDbEntity
  8
0
  6
Continuous
 62
     1
100
AcDbText
 10
328.9999996997321
 20
37.74999981501367
 30
0.0
 40
2.0
  1
-
 41
1.5
100
AcDbText
1001
PHOENIX7010
1002
{
1070
    62
1070
     1
1070
    41
1040
1.0
1002
}
  0
TEXT
  5
53A
102
{ACAD_REACTORS
330
54E
102
}
330
18
100
AcDbEntity
  8
0
  6
Continuous
 62
     1
100
AcDbText
 10
315.9999996997324
 20
25.24999981501367
 30
0.0
 40
2.0
  1
-
 41
1.5
100
AcDbText
1001
PHOENIX7010
1002
{
1070
    62
1070
     1
1070
    41
1040
1.0
1002
}
  0
TEXT
  5
53B
102
{ACAD_REACTORS
330
54E
102
}
330
18
100
AcDbEntity
  8
0
  6
Continuous
 62
     1
100
AcDbText
 10
315.9999996997324
 20
22.74999981501367
 30
0.0
 40
2.0
  1
4086
 41
1.5
100
AcDbText
1001
PHOENIX7010
1002
{
1070
    62
1070
     1
1070
    41
1040
1.0
1002
}
  0
TEXT
  5
53C
102
{ACAD_REACTORS
330
54E
102
}
330
18
100
AcDbEntity
  8
0
  6
Continuous
 62
     1
100
AcDbText
 10
315.9999996997324
 20
30.24999981501367
 30
0.0
 40
2.0
  1
-
 41
1.5
100
AcDbText
1001
PHOENIX7010
1002
{
1070
    62
1070
     1
1070
    41
1040
1.0
1002
}
  0
TEXT
  5
53D
102
{ACAD_REACTORS
330
54E
102
}
330
18
100
AcDbEntity
  8
0
  6
Continuous
 62
     1
100
AcDbText
 10
315.9999996997324
 20
27.74999981501367
 30
0.0
 40
2.0
  1
-
 41
1.5
100
AcDbText
1001
PHOENIX7010
1002
{
1070
    62
1070
     1
1070
    41
1040
1.0
1002
}
  0
TEXT
  5
53E
102
{ACAD_REACTORS
330
54E
102
}
330
18
100
AcDbEntity
  8
0
  6
Continuous
 62
     1
100
AcDbText
 10
315.9999996997324
 20
32.74999981501367
 30
0.0
 40
2.0
  1
-
 41
1.5
100
AcDbText
1001
PHOENIX7010
1002
{
1070
    62
1070
     1
1070
    41
1040
1.0
1002
}
  0
TEXT
  5
53F
102
{ACAD_REACTORS
330
54E
102
}
330
18
100
AcDbEntity
  8
0
  6
Continuous
 62
     1
100
AcDbText
 10
315.9999996997324
 20
35.24999981501367
 30
0.0
 40
2.0
  1
-
 41
1.5
100
AcDbText
1001
PHOENIX7010
1002
{
1070
    62
1070
     1
1070
    41
1040
1.0
1002
}
  0
TEXT
  5
540
102
{ACAD_REACTORS
330
54E
102
}
330
18
100
AcDbEntity
  8
0
  6
Continuous
 62
     1
100
AcDbText
 10
315.9999996997324
 20
37.74999981501367
 30
0.0
 40
2.0
  1
-
 41
1.5
100
AcDbText
1001
PHOENIX7010
1002
{
1070
    62
1070
     1
1070
    41
1040
1.0
1002
}
  0
LINE
  5
541
102
{ACAD_REACTORS
330
54E
102
}
330
18
100
AcDbEntity
  8
0
  6
Continuous
 62
     1
100
AcDbLine
 10
328.0
 20
48.00000000000022
 30
0.0
 11
328.0
 21
14.50000000000023
 31
0.0
1001
PHOENIX7010
1002
{
1070
    62
1070
     1
1070
    41
1040
1.0
1002
}
  0
LINE
  5
542
102
{ACAD_REACTORS
330
54E
102
}
330
18
100
AcDbEntity
  8
0
  6
Continuous
 62
     1
100
AcDbLine
 10
314.9999999999998
 20
21.50000000000023
 30
0.0
 11
350.0
 21
21.50000000000023
 31
0.0
1001
PHOENIX7010
1002
{
1070
    62
1070
     1
1070
    41
1040
1.0
1002
}
  0
LINE
  5
543
102
{ACAD_REACTORS
330
54E
102
}
330
18
100
AcDbEntity
  8
0
  6
Continuous
 62
     5
100
AcDbLine
 10
415.0
 20
78.50000000000022
 30
0.0
 11
317.4999999999998
 21
78.50000000000022
 31
0.0
1001
PHOENIX7010
1002
{
1070
    62
1070
     5
1070
    41
1040
1.0
1002
}
  0
LINE
  5
544
102
{ACAD_REACTORS
330
54E
102
}
330
18
100
AcDbEntity
  8
0
  6
Continuous
 62
     5
100
AcDbLine
 10
415.0
 20
48.00000000000022
 30
0.0
 11
317.4999999999998
 21
48.00000000000022
 31
0.0
1001
PHOENIX7010
1002
{
1070
    62
1070
     5
1070
    41
1040
1.0
1002
}
  0
LINE
  5
545
102
{ACAD_REACTORS
330
54E
102
}
330
18
100
AcDbEntity
  8
0
  6
Continuous
 62
     5
100
AcDbLine
 10
314.9999999999998
 20
100.0000000000001
 30
0.0
 11
314.9999999999998
 21
5.000000000000227
 31
0.0
1001
PHOENIX7010
1002
{
1070
    62
1070
     5
1070
    41
1040
1.0
1002
}
  0
INSERT
  5
546
102
{ACAD_REACTORS
330
54E
102
}
330
18
100
AcDbEntity
  8
0
  6
Continuous
 62
     5
370
    35
100
AcDbBlockReference
  2
PH_GRPBLK
 10
314.9999999999998
 20
14.50000000000023
 30
0.0
1001
PHOENIX7010
1002
{
1070
    41
1040
1.0
1002
}
  0
LWPOLYLINE
  5
547
102
{ACAD_REACTORS
330
504
102
}
330
18
100
AcDbEntity
  8
0
  6
Continuous
 62
     7
 60
     1
370
    50
100
AcDbPolyline
 90
        5
 70
     1
 43
0.0
 10
407.4334749940253
 20
35.16453811398049
 10
400.7334749940254
 20
27.36453811398042
 10
412.7334749940255
 20
27.36453811398042
 10
412.7334749940255
 20
35.16453811398037
 10
407.4334749940253
 20
28.26453811398051
1001
PHOENIX7010
1002
{
1070
    41
1040
1.0
1002
}
  0
LWPOLYLINE
  5
548
102
{ACAD_REACTORS
330
505
102
}
330
18
100
AcDbEntity
  8
0
  6
Continuous
 62
     7
 60
     1
370
    50
100
AcDbPolyline
 90
        3
 70
     1
 43
0.0
 10
399.8834749940256
 20
27.36453811398042
 10
399.8834749940256
 20
31.51453811398039
 10
404.0334749940257
 20
31.51453811398039
 42
2.414213562373094
1001
PHOENIX7010
1002
{
1070
    41
1040
1.0
1002
}
  0
LINE
  5
764
102
{ACAD_REACTORS
330
76F
102
}
330
18
100
AcDbEntity
  8
0
  6
Continuous
 62
     1
100
AcDbLine
 10
28.74333880214022
 20
20.93675935878525
 30
0.0
 11
171.268864134973
 21
20.93675935878525
 31
0.0
1001
PHOENIX7010
1002
{
1070
    41
1040
1.0
1070
    62
1070
     1
1002
}
  0
LINE
  5
765
102
{ACAD_REACTORS
330
76F
102
}
330
18
100
AcDbEntity
  8
0
  6
Continuous
 62
     1
100
AcDbLine
 10
28.74333880214022
 20
12.60675935878544
 30
0.0
 11
171.268864134973
 21
12.60675935878544
 31
0.0
1001
PHOENIX7010
1002
{
1070
    41
1040
1.0
1070
    62
1070
     1
1002
}
  0
LINE
  5
766
102
{ACAD_REACTORS
330
76F
102
}
330
18
100
AcDbEntity
  8
0
  6
Continuous
 62
     1
100
AcDbLine
 10
28.74333880214022
 20
29.2667593587853
 30
0.0
 11
171.268864134973
 21
29.2667593587853
 31
0.0
1001
PHOENIX7010
1002
{
1070
    41
1040
1.0
1070
    62
1070
     1
1002
}
  0
LINE
  5
767
102
{ACAD_REACTORS
330
76F
102
}
330
18
100
AcDbEntity
  8
0
  6
Continuous
 62
     1
100
AcDbLine
 10
28.74333880214022
 20
37.59675935878522
 30
0.0
 11
171.268864134973
 21
37.59675935878522
 31
0.0
1001
PHOENIX7010
1002
{
1070
    41
1040
1.0
1070
    62
1070
     1
1002
}
  0
MTEXT
  5
768
102
{ACAD_REACTORS
330
76F
102
}
330
18
100
AcDbEntity
  8
0
  6
Continuous
 62
     5
100
AcDbMText
 10
31.36119002026726
 20
44.66978808453132
 30
0.0
 40
5.0
 41
86.59961566179914
 71
     1
 72
     5
  1
Modell/{\Q20;model\P}PF/M 00042-OD\PPF/M 00063-OD\PPF/M 00084-OD
 73
     1
 44
1.0
1001
PHOENIX7010
1002
{
1070
    41
1040
1.0
1070
    62
1070
     5
1002
}
1001
ACAD
1000
MTEXTBEGIN
1070
    73
1070
     1
1070
    44
1040
1.0
1070
    74
1070
     0
1000
MTEXTEND
  0
MTEXT
  5
769
102
{ACAD_REACTORS
330
76F
102
}
330
18
100
AcDbEntity
  8
0
  6
Continuous
 62
     5
100
AcDbMText
 10
93.94448422096388
 20
44.66978808453132
 30
0.0
 40
5.0
 41
55.0
 71
     1
 72
     5
  1
TE/{\Q20;HP\P}  42\P  63\P  84
 73
     1
 44
1.0
1001
PHOENIX7010
1002
{
1070
    41
1040
1.0
1070
    62
1070
     5
1002
}
1001
ACAD
1000
MTEXTBEGIN
1070
    73
1070
     1
1070
    44
1040
1.0
1070
    74
1070
     0
1000
MTEXTEND
  0
MTEXT
  5
76A
102
{ACAD_REACTORS
330
76F
102
}
330
18
100
AcDbEntity
  8
0
  6
Continuous
 62
     5
100
AcDbMText
 10
119.6800048490806
 20
44.66978808453132
 30
0.0
 40
5.0
 41
55.0
 71
     1
 72
     5
  1
Länge/Length\P218,44\P325,12\P431,80
 73
     1
 44
1.0
1001
PHOENIX7010
1002
{
1070
    41
1040
1.0
1070
    62
1070
     5
1002
}
1001
ACAD
1000
MTEXTBEGIN
1070
    73
1070
     1
1070
    44
1040
1.0
1070
    74
1070
     0
1000
MTEXTEND
  0
LINE
  5
76B
102
{ACAD_REACTORS
330
76F
102
}
330
18
100
AcDbEntity
  8
0
  6
Continuous
 62
     1
100
AcDbLine
 10
117.0621536309536
 20
12.60675935878544
 30
0.0
 11
117.0621536309536
 21
45.63262278445074
 31
0.0
1001
PHOENIX7010
1002
{
1070
    41
1040
1.0
1070
    62
1070
     1
1002
}
  0
LINE
  5
76C
102
{ACAD_REACTORS
330
76F
102
}
330
18
100
AcDbEntity
  8
0
  6
Continuous
 62
     1
100
AcDbLine
 10
92.82091072613821
 20
12.60675935878544
 30
0.0
 11
92.82091072613821
 21
45.63262278445074
 31
0.0
1001
PHOENIX7010
1002
{
1070
    41
1040
1.0
1070
    62
1070
     1
1002
}
  0
INSERT
  5
76D
102
{ACAD_REACTORS
330
76F
102
}
330
18
100
AcDbEntity
  8
0
  6
Continuous
 62
     1
100
AcDbBlockReference
  2
PH_GRPBLK
 10
28.74333880214022
 20
20.93675935878525
 30
0.0
1001
PHOENIX7010
1002
{
1070
    41
1040
1.0
1002
}
  0
PDFUNDERLAY
  5
97F
330
18
100
AcDbEntity
  8
0
  6
ACAD_ISO05W100
 62
     7
 92
        8
310
0800000000000000
370
    50
100
AcDbUnderlayReference
340
97E
 10
262.0269717969313
 20
119.784651655028
 30
0.0
 41
9.0
 42
9.0
 43
9.0
281
   100
282
     0
  0
ENDSEC
  0
SECTION
  2
OBJECTS
  0
DICTIONARY
  5
C
330
0
100
AcDbDictionary
281
     1
  3
ACAD_CIP_PREVIOUS_PRODUCT_INFO
350
9EC
  3
ACAD_COLOR
350
4D2
  3
ACAD_DETAILVIEWSTYLE
350
9E5
  3
ACAD_GROUP
350
D
  3
ACAD_LAYOUT
350
4E9
  3
ACAD_MATERIAL
350
4A5
  3
ACAD_MLEADERSTYLE
350
4E7
  3
ACAD_MLINESTYLE
350
1B
  3
ACAD_PDFDEFINITIONS
350
628
  3
ACAD_PLOTSETTINGS
350
4EA
  3
ACAD_PLOTSTYLENAME
350
4A3
  3
ACAD_SCALELIST
350
4D5
  3
ACAD_SECTIONVIEWSTYLE
350
9E3
  3
ACAD_TABLESTYLE
350
4D3
  3
ACAD_VISUALSTYLE
350
4BE
  3
ACDB_RECOMPOSE_DATA
350
A3E
  3
AcDbVariableDictionary
350
6ED
  3
AcDsDecomposeData
350
A45
  3
AEC_PROPERTY_SET_DEFS
350
500
  3
DWGPROPS
350
A3F
  3
PH_OBJREACTOR_DICT
350
229
  3
PH_ROOTGROUP_DICT
350
21F
  3
PH_VARS
350
21E
  0
DICTIONARY
  5
6BC
330
8
100
AcDbDictionary
280
     1
281
     1
  0
DICTIONARY
  5
502
330
2
100
AcDbDictionary
280
     1
281
     1
  3
ACAD_LAYERSTATES
360
503
  0
DICTIONARY
  5
5D9
330
E
100
AcDbDictionary
280
     1
281
     1
  3
ADSK_XREC_LAYER_RECONCILED
360
5DA
  0
DICTIONARY
  5
5DB
330
21
100
AcDbDictionary
280
     1
281
     1
  3
ADSK_XREC_LAYER_RECONCILED
360
5DC
  0
DICTIONARY
  5
5DD
330
76
100
AcDbDictionary
280
     1
281
     1
  3
ADSK_XREC_LAYER_RECONCILED
360
5DE
  0
DICTIONARY
  5
5DF
330
78
100
AcDbDictionary
280
     1
281
     1
  3
ADSK_XREC_LAYER_RECONCILED
360
5E0
  0
DICTIONARY
  5
5E1
330
141
100
AcDbDictionary
280
     1
281
     1
  3
ADSK_XREC_LAYER_RECONCILED
360
5E2
  0
DICTIONARY
  5
5E3
330
1BD
100
AcDbDictionary
280
     1
281
     1
  3
ADSK_XREC_LAYER_RECONCILED
360
5E4
  0
DICTIONARY
  5
5E5
330
245
100
AcDbDictionary
280
     1
281
     1
  3
ADSK_XREC_LAYER_RECONCILED
360
5E6
  0
DICTIONARY
  5
9D4
330
50D
100
AcDbDictionary
280
     1
281
     1
  3
ACAD_MTEXT_2008_RT
360
A3D
  0
XRECORD
  5
9EC
102
{ACAD_REACTORS
330
C
102
}
330
C
100
AcDbXrecord
280
     1
300
AMECH_PP
300
2019
300

  0
DICTIONARY
  5
4D2
102
{ACAD_REACTORS
330
C
102
}
330
C
100
AcDbDictionary
281
     1
  0
DICTIONARY
  5
9E5
102
{ACAD_REACTORS
330
C
102
}
330
C
100
AcDbDictionary
281
     1
  3
Metric50
350
9E6
  0
DICTIONARY
  5
D
102
{ACAD_REACTORS
330
C
102
}
330
C
100
AcDbDictionary
281
     1
  3
$$$$$$$$_BZA45776
350
137
  3
$$$$$$$$_RAHMEN
350
14F
  3
_GF_XXXX_2KOPF
350
1E7
  3
_GF_XXXX_BZA45776
350
EA
  3
_GF_XXXX_RAHMEN
350
190
  3
_MD_XXXX_BZA45776
350
13F
  3
_VV_XXXX_RAHMEN
350
14B
  3
_ZU_XXXX_RAHMEN
350
1BC
  3
DINA4H_BZA45776
350
20
  3
POLYLINE_31
350
216
  0
DICTIONARY
  5
4E9
102
{ACAD_REACTORS
330
C
102
}
330
C
100
AcDbDictionary
281
     1
  3
Layout1
350
4EC
  3
Model
350
4EB
  0
DICTIONARY
  5
4A5
102
{ACAD_REACTORS
330
C
102
}
330
C
100
AcDbDictionary
281
     1
  3
ByBlock
350
4AE
  3
ByLayer
350
4A6
  3
Global
350
4B6
  0
DICTIONARY
  5
4E7
102
{ACAD_REACTORS
330
C
102
}
330
C
100
AcDbDictionary
281
     1
  3
Standard
350
4E8
  0
DICTIONARY
  5
1B
102
{ACAD_REACTORS
330
C
102
}
330
C
100
AcDbDictionary
281
     1
  3
STANDARD
350
1C
  0
DICTIONARY
  5
628
102
{ACAD_REACTORS
330
C
102
}
330
C
100
AcDbDictionary
281
     1
  3
2901831 - 1
350
97E
  0
DICTIONARY
  5
4EA
102
{ACAD_REACTORS
330
C
102
}
330
C
100
AcDbDictionary
281
     1
  0
ACDBDICTIONARYWDFLT
  5
4A3
102
{ACAD_REACTORS
330
C
102
}
330
C
100
AcDbDictionary
281
     1
  3
Normal
350
4A4
100
AcDbDictionaryWithDefault
340
4A4
  0
DICTIONARY
  5
4D5
102
{ACAD_REACTORS
330
C
102
}
330
C
100
AcDbDictionary
281
     1
  3
A0
350
4D6
  3
A1
350
4D7
  3
A2
350
4D8
  3
A3
350
4D9
  3
A4
350
4DA
  3
A5
350
4DB
  3
A6
350
4DC
  3
A7
350
4DD
  3
A8
350
4DE
  3
A9
350
4DF
  3
B0
350
4E0
  3
B1
350
4E1
  3
B2
350
4E2
  3
B3
350
4E3
  3
B4
350
4E4
  3
B5
350
4E5
  3
B6
350
4E6
  0
DICTIONARY
  5
9E3
102
{ACAD_REACTORS
330
C
102
}
330
C
100
AcDbDictionary
281
     1
  3
Metric50
350
9E4
  0
DICTIONARY
  5
4D3
102
{ACAD_REACTORS
330
C
102
}
330
C
100
AcDbDictionary
281
     1
  3
Standard
350
4D4
  0
DICTIONARY
  5
4BE
102
{ACAD_REACTORS
330
C
102
}
330
C
100
AcDbDictionary
281
     1
  3
2dWireframe
350
4C4
  3
3D Hidden
350
4C6
  3
3dWireframe
350
4C5
  3
Basic
350
4C3
  3
Brighten
350
4CA
  3
ColorChange
350
4CE
  3
Conceptual
350
4C7
  3
Dim
350
4C9
  3
EdgeColorOff
350
4D1
  3
Facepattern
350
4CD
  3
Flat
350
4BF
  3
FlatWithEdges
350
4C0
  3
Gouraud
350
4C1
  3
GouraudWithEdges
350
4C2
  3
Hidden
350
9DD
  3
JitterOff
350
4CF
  3
Linepattern
350
4CC
  3
OverhangOff
350
4D0
  3
Realistic
350
4C8
  3
Shaded
350
9E2
  3
Shaded with edges
350
9E1
  3
Shades of Gray
350
9DE
  3
Sketchy
350
9DF
  3
Thicken
350
4CB
  3
Wireframe
350
9DC
  3
X-Ray
350
9E0
  0
XRECORD
  5
A3E
102
{ACAD_REACTORS
330
C
102
}
330
C
100
AcDbXrecord
280
     1
 90
        1
330
4D4
330
50D
  0
DICTIONARY
  5
6ED
102
{ACAD_REACTORS
330
C
102
}
330
C
100
AcDbDictionary
281
     1
  3
CANNOSCALE
350
6F0
  3
CMLEADERSTYLE
350
6EF
  3
CTABLESTYLE
350
6EE
  3
CVIEWDETAILSTYLE
350
9FF
  3
CVIEWSECTIONSTYLE
350
A00
  3
DIMASSOC
350
6F3
  3
INDEXCTL
350
6F2
  3
LAYEREVAL
350
9D9
  3
LAYERNOTIFY
350
9DA
  3
LIGHTINGUNITS
350
9D8
  3
MSLTSCALE
350
9D7
  3
SOLIDHIST
350
A3A
  3
SORTENTS
350
6F1
  3
XCLIPFRAME
350
A3B
  0
DICTIONARY
  5
A45
102
{ACAD_REACTORS
330
C
102
}
330
C
100
AcDbDictionary
281
     1
  3
AcDsRecords
350
A47
  3
AcDsSchemas
350
A46
1001
ACAD
1070
     2
  0
DICTIONARY
  5
500
102
{ACAD_REACTORS
330
C
102
}
330
C
100
AcDbDictionary
281
     1
  0
XRECORD
  5
A3F
102
{ACAD_REACTORS
330
C
102
}
330
C
100
AcDbXrecord
280
     1
  1
DWGPROPS COOKIE
  2

  3

  4

  6

  7

  8
kotzmaier
  9

300
=
301
=
302
=
303
=
304
=
305
=
306
=
307
=
308
=
309
=
 40
1.307684814814814
 41
2451306.659224537
 42
2459821.550844907
  1

 90
        0
  0
DICTIONARY
  5
229
102
{ACAD_REACTORS
330
C
102
}
330
C
100
AcDbDictionary
281
     1
  0
DICTIONARY
  5
21F
102
{ACAD_REACTORS
330
C
102
}
330
C
100
AcDbDictionary
281
     1
  3
$PH$AAAD3H
350
4FE
  3
$PH$AAAECandP
350
549
  3
$PH$AAAFwer
350
76E
  0
PH_VARS
  5
21E
102
{ACAD_REACTORS
330
C
102
}
330
C
  0
DICTIONARY
  5
503
102
{ACAD_REACTORS
330
502
102
}
330
502
100
AcDbDictionary
281
     1
  0
XRECORD
  5
5DA
102
{ACAD_REACTORS
330
5D9
102
}
330
5D9
100
AcDbXrecord
280
     1
290
     1
  0
XRECORD
  5
5DC
102
{ACAD_REACTORS
330
5DB
102
}
330
5DB
100
AcDbXrecord
280
     1
290
     1
  0
XRECORD
  5
5DE
102
{ACAD_REACTORS
330
5DD
102
}
330
5DD
100
AcDbXrecord
280
     1
290
     1
  0
XRECORD
  5
5E0
102
{ACAD_REACTORS
330
5DF
102
}
330
5DF
100
AcDbXrecord
280
     1
290
     1
  0
XRECORD
  5
5E2
102
{ACAD_REACTORS
330
5E1
102
}
330
5E1
100
AcDbXrecord
280
     1
290
     1
  0
XRECORD
  5
5E4
102
{ACAD_REACTORS
330
5E3
102
}
330
5E3
100
AcDbXrecord
280
     1
290
     1
  0
XRECORD
  5
5E6
102
{ACAD_REACTORS
330
5E5
102
}
330
5E5
100
AcDbXrecord
280
     1
290
     1
  0
XRECORD
  5
A3D
102
{ACAD_REACTORS
330
9D4
102
}
330
9D4
100
AcDbXrecord
280
     1
 40
46997.0
  1
\pxql;{\fArial|b1|i0|c0|p34;\W1.1;BOPLA}
  0
ACDBDETAILVIEWSTYLE
  5
9E6
102
{ACAD_XDICTIONARY
360
A85
102
}
102
{ACAD_REACTORS
330
9E5
102
}
330
9E5
100
AcDbModelDocViewStyle
 70
     0
  3
Metric50
290
     0
100
AcDbDetailViewStyle
 70
     0
 71
     0
 90
        3
 71
     1
340
F
 40
5.0
340
0
 40
5.0
300

 40
0.0
280
     1
 71
     2
340
14
 90
       25
 71
     3
340
F
 40
5.0
 90
        0
 40
15.0
 90
        1
300
%<\AcVar ViewDetailId>% (%<\AcVar ViewScale \f "%sn">%)
 71
     4
340
14
 90
       25
340
14
 90
       25
280
     0
  0
GROUP
  5
137
102
{ACAD_REACTORS
330
D
102
}
330
D
100
AcDbGroup
300
V11:16009:********
 70
     0
 71
     1
  0
GROUP
  5
14F
102
{ACAD_REACTORS
330
D
102
}
330
D
100
AcDbGroup
300
V11:16022:********
 70
     0
 71
     1
  0
GROUP
  5
1E7
102
{ACAD_REACTORS
330
D
102
}
330
D
100
AcDbGroup
300
V11:16035:_GF_XXXX
 70
     0
 71
     1
  0
GROUP
  5
EA
102
{ACAD_REACTORS
330
D
102
}
330
D
100
AcDbGroup
300
V11:15994:_GF_XXXX
 70
     0
 71
     1
  0
GROUP
  5
190
102
{ACAD_REACTORS
330
D
102
}
330
D
100
AcDbGroup
300
V11:16028:_GF_XXXX
 70
     0
 71
     1
  0
GROUP
  5
13F
102
{ACAD_REACTORS
330
D
102
}
330
D
100
AcDbGroup
300
V11:16010:_MD_XXXX
 70
     0
 71
     1
  0
GROUP
  5
14B
102
{ACAD_REACTORS
330
D
102
}
330
D
100
AcDbGroup
300
V11:16016:_VV_XXXX
 70
     0
 71
     1
  0
GROUP
  5
1BC
102
{ACAD_REACTORS
330
D
102
}
330
D
100
AcDbGroup
300
V11:16032:_ZU_XXXX
 70
     0
 71
     1
  0
GROUP
  5
20
102
{ACAD_REACTORS
330
D
102
}
330
D
100
AcDbGroup
300
V11:15957:DINA4H
 70
     0
 71
     1
  0
GROUP
  5
216
102
{ACAD_REACTORS
330
D
102
}
330
D
100
AcDbGroup
300
V11:16037:POLYLINE
 70
     0
 71
     1
  0
LAYOUT
  5
4EC
102
{ACAD_XDICTIONARY
360
A73
102
}
102
{ACAD_REACTORS
330
4E9
102
}
330
4E9
100
AcDbPlotSettings
  1

  2
RICOH Aficio MP W2400 RPCS
  4

  6

 40
0.0
 41
0.0
 42
0.0
 43
0.0
 44
0.0
 45
0.0
 46
0.0
 47
0.0
 48
0.0
 49
0.0
140
0.0
141
0.0
142
1.0
143
1.0
 70
   688
 72
     0
 73
     0
 74
     5
  7
HP_SW.ctb
 75
    16
147
1.0
148
0.0
149
0.0
100
AcDbLayout
  1
Layout1
 70
     1
 71
     1
 10
0.0
 20
0.0
 11
420.0
 21
297.0
 12
0.0
 22
0.0
 32
0.0
 14
1.000000000000000E+20
 24
1.000000000000000E+20
 34
1.000000000000000E+20
 15
-1.000000000000000E+20
 25
-1.000000000000000E+20
 35
-1.000000000000000E+20
146
0.0
 13
0.0
 23
0.0
 33
0.0
 16
1.0
 26
0.0
 36
0.0
 17
0.0
 27
1.0
 37
0.0
 76
     0
330
15
  0
LAYOUT
  5
4EB
102
{ACAD_XDICTIONARY
360
9C4
102
}
102
{ACAD_REACTORS
330
4E9
102
}
330
4E9
100
AcDbPlotSettings
  1

  2
RICOH Aficio MP W2400 RPCS
  4
A4
  6

 40
5.027082920074462
 41
5.027099609375
 42
5.027069091796875
 43
5.027069091796875
 44
209.9733276367187
 45
296.9259948730469
 46
0.0
 47
0.0
 48
0.0
 49
0.0
140
0.0
141
0.0
142
1.0
143
2.719903076873245
 70
 11952
 72
     1
 73
     1
 74
     0
  7
HP_SW.ctb
 75
     0
147
0.3676601598427482
148
84.08962515564667
149
49.96805271271444
100
AcDbLayout
  1
Model
 70
     1
 71
     0
 10
0.0
 20
0.0
 11
12.0
 21
9.0
 12
0.0
 22
0.0
 32
0.0
 14
0.0
 24
0.0
 34
0.0
 15
0.0
 25
0.0
 35
0.0
146
0.0
 13
0.0
 23
0.0
 33
0.0
 16
1.0
 26
0.0
 36
0.0
 17
0.0
 27
1.0
 37
0.0
 76
     0
330
18
331
4A1
1001
ACAD_PSEXT
1000
RICOH Aficio MP W2400 RPCS
1000
RICOH Aficio MP W2400 RPCS
1000
192.168.49.64
1000

1070
     0
  0
MATERIAL
  5
4AE
102
{ACAD_XDICTIONARY
360
4AF
102
}
102
{ACAD_REACTORS
330
4A5
102
}
330
4A5
100
AcDbMaterial
  1
ByBlock
 72
     0
 43
0.0208333333333333
 43
0.0
 43
0.0
 43
0.0
 43
0.0
 43
0.0208333333333333
 43
0.0
 43
0.0
 43
0.0
 43
0.0
 43
1.0
 43
0.0
 43
0.0
 43
0.0
 43
0.0
 43
1.0
 77
     0
 47
0.0208333333333333
 47
0.0
 47
0.0
 47
0.0
 47
0.0
 47
0.0208333333333333
 47
0.0
 47
0.0
 47
0.0
 47
0.0
 47
1.0
 47
0.0
 47
0.0
 47
0.0
 47
0.0
 47
1.0
171
     0
 49
0.0208333333333333
 49
0.0
 49
0.0
 49
0.0
 49
0.0
 49
0.0208333333333333
 49
0.0
 49
0.0
 49
0.0
 49
0.0
 49
1.0
 49
0.0
 49
0.0
 49
0.0
 49
0.0
 49
1.0
175
     0
142
0.0208333333333333
142
0.0
142
0.0
142
0.0
142
0.0
142
0.0208333333333333
142
0.0
142
0.0
142
0.0
142
0.0
142
1.0
142
0.0
142
0.0
142
0.0
142
0.0
142
1.0
179
     0
144
0.0208333333333333
144
0.0
144
0.0
144
0.0
144
0.0
144
0.0208333333333333
144
0.0
144
0.0
144
0.0
144
0.0
144
1.0
144
0.0
144
0.0
144
0.0
144
0.0
144
1.0
147
0.0208333333333333
147
0.0
147
0.0
147
0.0
147
0.0
147
0.0208333333333333
147
0.0
147
0.0
147
0.0
147
0.0
147
1.0
147
0.0
147
0.0
147
0.0
147
0.0
147
1.0
  0
MATERIAL
  5
4A6
102
{ACAD_XDICTIONARY
360
4A7
102
}
102
{ACAD_REACTORS
330
4A5
102
}
330
4A5
100
AcDbMaterial
  1
ByLayer
 72
     0
 43
0.0208333333333333
 43
0.0
 43
0.0
 43
0.0
 43
0.0
 43
0.0208333333333333
 43
0.0
 43
0.0
 43
0.0
 43
0.0
 43
1.0
 43
0.0
 43
0.0
 43
0.0
 43
0.0
 43
1.0
 77
     0
 47
0.0208333333333333
 47
0.0
 47
0.0
 47
0.0
 47
0.0
 47
0.0208333333333333
 47
0.0
 47
0.0
 47
0.0
 47
0.0
 47
1.0
 47
0.0
 47
0.0
 47
0.0
 47
0.0
 47
1.0
171
     0
 49
0.0208333333333333
 49
0.0
 49
0.0
 49
0.0
 49
0.0
 49
0.0208333333333333
 49
0.0
 49
0.0
 49
0.0
 49
0.0
 49
1.0
 49
0.0
 49
0.0
 49
0.0
 49
0.0
 49
1.0
175
     0
142
0.0208333333333333
142
0.0
142
0.0
142
0.0
142
0.0
142
0.0208333333333333
142
0.0
142
0.0
142
0.0
142
0.0
142
1.0
142
0.0
142
0.0
142
0.0
142
0.0
142
1.0
179
     0
144
0.0208333333333333
144
0.0
144
0.0
144
0.0
144
0.0
144
0.0208333333333333
144
0.0
144
0.0
144
0.0
144
0.0
144
1.0
144
0.0
144
0.0
144
0.0
144
0.0
144
1.0
147
0.0208333333333333
147
0.0
147
0.0
147
0.0
147
0.0
147
0.0208333333333333
147
0.0
147
0.0
147
0.0
147
0.0
147
1.0
147
0.0
147
0.0
147
0.0
147
0.0
147
1.0
  0
MATERIAL
  5
4B6
102
{ACAD_XDICTIONARY
360
4B7
102
}
102
{ACAD_REACTORS
330
4A5
102
}
330
4A5
100
AcDbMaterial
  1
Global
 72
     0
 43
0.0208333333333333
 43
0.0
 43
0.0
 43
0.0
 43
0.0
 43
0.0208333333333333
 43
0.0
 43
0.0
 43
0.0
 43
0.0
 43
1.0
 43
0.0
 43
0.0
 43
0.0
 43
0.0
 43
1.0
 77
     0
 47
0.0208333333333333
 47
0.0
 47
0.0
 47
0.0
 47
0.0
 47
0.0208333333333333
 47
0.0
 47
0.0
 47
0.0
 47
0.0
 47
1.0
 47
0.0
 47
0.0
 47
0.0
 47
0.0
 47
1.0
171
     0
 49
0.0208333333333333
 49
0.0
 49
0.0
 49
0.0
 49
0.0
 49
0.0208333333333333
 49
0.0
 49
0.0
 49
0.0
 49
0.0
 49
1.0
 49
0.0
 49
0.0
 49
0.0
 49
0.0
 49
1.0
175
     0
142
0.0208333333333333
142
0.0
142
0.0
142
0.0
142
0.0
142
0.0208333333333333
142
0.0
142
0.0
142
0.0
142
0.0
142
1.0
142
0.0
142
0.0
142
0.0
142
0.0
142
1.0
179
     0
144
0.0208333333333333
144
0.0
144
0.0
144
0.0
144
0.0
144
0.0208333333333333
144
0.0
144
0.0
144
0.0
144
0.0
144
1.0
144
0.0
144
0.0
144
0.0
144
0.0
144
1.0
147
0.0208333333333333
147
0.0
147
0.0
147
0.0
147
0.0
147
0.0208333333333333
147
0.0
147
0.0
147
0.0
147
0.0
147
1.0
147
0.0
147
0.0
147
0.0
147
0.0
147
1.0
  0
MLEADERSTYLE
  5
4E8
102
{ACAD_REACTORS
330
4E7
102
}
330
4E7
100
AcDbMLeaderStyle
170
     2
171
     1
172
     0
 90
        2
 40
0.0
 41
0.0
173
     1
 91
-1056964608
340
12
 92
       -2
290
     1
 42
2.0
291
     1
 43
0.36
  3
Standard
 44
4.0
300

342
F
174
     1
178
     6
175
     1
176
     0
 93
-1056964608
 45
4.0
292
     0
297
     0
 46
4.0
 94
-1056964608
 47
1.0
 49
1.0
140
1.0
293
     1
141
0.0
294
     1
177
     0
142
1.0
295
     0
296
     0
143
0.125
1001
ACAD_MLEADERVER
1070
     2
  0
MLINESTYLE
  5
1C
102
{ACAD_REACTORS
330
1B
102
}
330
1B
100
AcDbMlineStyle
  2
STANDARD
 70
     0
  3

 62
   256
 51
90.0
 52
90.0
 71
     2
 49
0.5
 62
   256
  6
BYLAYER
 49
-0.5
 62
   256
  6
BYLAYER
  0
PDFDEFINITION
  5
97E
102
{ACAD_REACTORS
330
628
330
97F
102
}
330
628
100
AcDbUnderlayDefinition
  1
F:\User\Daten\DWG\nc2\nc29\2901831.pdf
  2
1
  0
ACDBPLACEHOLDER
  5
4A4
102
{ACAD_REACTORS
330
4A3
102
}
330
4A3
  0
SCALE
  5
4D6
102
{ACAD_REACTORS
330
4D5
102
}
330
4D5
100
AcDbScale
 70
     0
300
1:1
140
1.0
141
1.0
290
     1
  0
SCALE
  5
4D7
102
{ACAD_REACTORS
330
4D5
102
}
330
4D5
100
AcDbScale
 70
     0
300
1:2
140
1.0
141
2.0
290
     0
  0
SCALE
  5
4D8
102
{ACAD_REACTORS
330
4D5
102
}
330
4D5
100
AcDbScale
 70
     0
300
1:4
140
1.0
141
4.0
290
     0
  0
SCALE
  5
4D9
102
{ACAD_REACTORS
330
4D5
102
}
330
4D5
100
AcDbScale
 70
     0
300
1:5
140
1.0
141
5.0
290
     0
  0
SCALE
  5
4DA
102
{ACAD_REACTORS
330
4D5
102
}
330
4D5
100
AcDbScale
 70
     0
300
1:8
140
1.0
141
8.0
290
     0
  0
SCALE
  5
4DB
102
{ACAD_REACTORS
330
4D5
102
}
330
4D5
100
AcDbScale
 70
     0
300
1:10
140
1.0
141
10.0
290
     0
  0
SCALE
  5
4DC
102
{ACAD_REACTORS
330
4D5
102
}
330
4D5
100
AcDbScale
 70
     0
300
1:16
140
1.0
141
16.0
290
     0
  0
SCALE
  5
4DD
102
{ACAD_REACTORS
330
4D5
102
}
330
4D5
100
AcDbScale
 70
     0
300
1:20
140
1.0
141
20.0
290
     0
  0
SCALE
  5
4DE
102
{ACAD_REACTORS
330
4D5
102
}
330
4D5
100
AcDbScale
 70
     0
300
1:30
140
1.0
141
30.0
290
     0
  0
SCALE
  5
4DF
102
{ACAD_REACTORS
330
4D5
102
}
330
4D5
100
AcDbScale
 70
     0
300
1:40
140
1.0
141
40.0
290
     0
  0
SCALE
  5
4E0
102
{ACAD_REACTORS
330
4D5
102
}
330
4D5
100
AcDbScale
 70
     0
300
1:50
140
1.0
141
50.0
290
     0
  0
SCALE
  5
4E1
102
{ACAD_REACTORS
330
4D5
102
}
330
4D5
100
AcDbScale
 70
     0
300
1:100
140
1.0
141
100.0
290
     0
  0
SCALE
  5
4E2
102
{ACAD_REACTORS
330
4D5
102
}
330
4D5
100
AcDbScale
 70
     0
300
2:1
140
2.0
141
1.0
290
     0
  0
SCALE
  5
4E3
102
{ACAD_REACTORS
330
4D5
102
}
330
4D5
100
AcDbScale
 70
     0
300
4:1
140
4.0
141
1.0
290
     0
  0
SCALE
  5
4E4
102
{ACAD_REACTORS
330
4D5
102
}
330
4D5
100
AcDbScale
 70
     0
300
8:1
140
8.0
141
1.0
290
     0
  0
SCALE
  5
4E5
102
{ACAD_REACTORS
330
4D5
102
}
330
4D5
100
AcDbScale
 70
     0
300
10:1
140
10.0
141
1.0
290
     0
  0
SCALE
  5
4E6
102
{ACAD_REACTORS
330
4D5
102
}
330
4D5
100
AcDbScale
 70
     0
300
100:1
140
100.0
141
1.0
290
     0
  0
ACDBSECTIONVIEWSTYLE
  5
9E4
102
{ACAD_XDICTIONARY
360
A83
102
}
102
{ACAD_REACTORS
330
9E3
102
}
330
9E3
100
AcDbModelDocViewStyle
 70
     0
  3
Metric50
290
     0
100
AcDbSectionViewStyle
 70
     0
 71
     0
 90
      102
 71
     1
340
F
 40
5.0
340
0
340
0
 40
5.0
300
I, O, Q, S, X, Z
 40
10.0
 90
        0
 40
2.5
 90
        0
 71
     2
340
14
 90
       25
340
14
 90
       50
 40
5.0
 40
2.5
 40
5.0
 71
     3
340
F
 40
5.0
 90
        0
 40
15.0
 90
        1
300
%<\AcVar ViewSectionStartId>%-%<\AcVar ViewSectionEndId>% (%<\AcVar ViewScale \f "%sn">%)
 71
     4
300
ANSI31
 40
1.0
 90
        0
290
     0
290
     0
 90
        6
 40
0.0
 40
1.570796326794896
 40
0.2617993877991494
 40
1.308996938995747
 40
-0.2617993877991494
 40
1.832595714594046
  0
TABLESTYLE
  5
4D4
102
{ACAD_XDICTIONARY
360
6B6
102
}
102
{ACAD_REACTORS
330
4D3
102
}
330
4D3
100
AcDbTableStyle
  3
Standard
 70
     0
 71
     0
 40
1.5
 41
1.5
280
     0
281
     0
  7
STANDARD
140
4.5
170
     2
 62
     0
 63
     7
283
     0
274
    -2
284
     1
 64
     0
275
    -2
285
     1
 65
     0
276
    -2
286
     1
 66
     0
277
    -2
287
     1
 67
     0
278
    -2
288
     1
 68
     0
279
    -2
289
     1
 69
     0
  7
STANDARD
140
6.0
170
     5
 62
     0
 63
     7
283
     0
274
    -2
284
     1
 64
     0
275
    -2
285
     1
 65
     0
276
    -2
286
     1
 66
     0
277
    -2
287
     1
 67
     0
278
    -2
288
     1
 68
     0
279
    -2
289
     1
 69
     0
  7
STANDARD
140
4.5
170
     5
 62
     0
 63
     7
283
     0
274
    -2
284
     1
 64
     0
275
    -2
285
     1
 65
     0
276
    -2
286
     1
 66
     0
277
    -2
287
     1
 67
     0
278
    -2
288
     1
 68
     0
279
    -2
289
     1
 69
     0
  0
VISUALSTYLE
  5
4C4
102
{ACAD_XDICTIONARY
360
A55
102
}
102
{ACAD_REACTORS
330
4BE
102
}
330
4BE
100
AcDbVisualStyle
  2
2dWireframe
 70
     4
 71
     0
 72
     2
 73
     0
 90
        0
 40
-0.6
 41
-30.0
 62
     5
 63
     7
 74
     1
 91
        4
 64
     7
 65
   257
 75
     1
175
     1
 42
1.0
 92
        0
 66
   257
 43
1.0
 76
     1
 77
     6
 78
     2
 67
     7
 79
     5
170
     0
171
     0
290
     0
174
     0
 93
        1
 44
0.0
173
     0
291
     0
 45
0.0
1001
ACAD
1000
AcDbSavedByObjectVersion
1070
     0
  0
VISUALSTYLE
  5
4C6
102
{ACAD_XDICTIONARY
360
A59
102
}
102
{ACAD_REACTORS
330
4BE
102
}
330
4BE
100
AcDbVisualStyle
  2
3D Hidden
 70
     6
 71
     1
 72
     2
 73
     2
 90
        0
 40
-0.6
 41
-30.0
 62
     5
 63
     7
 74
     2
 91
        2
 64
     7
 65
   257
 75
     2
175
     1
 42
179.0
 92
        0
 66
   257
 43
1.0
 76
     1
 77
     6
 78
     2
 67
     7
 79
     3
170
     0
171
     0
290
     0
174
     0
 93
        1
 44
0.0
173
     0
291
     0
 45
0.0
1001
ACAD
1000
AcDbSavedByObjectVersion
1070
     0
  0
VISUALSTYLE
  5
4C5
102
{ACAD_XDICTIONARY
360
A57
102
}
102
{ACAD_REACTORS
330
4BE
102
}
330
4BE
100
AcDbVisualStyle
  2
3dWireframe
 70
     5
 71
     0
 72
     2
 73
     0
 90
        0
 40
-0.6
 41
-30.0
 62
     5
 63
     7
 74
     1
 91
        4
 64
     7
 65
   257
 75
     1
175
     1
 42
1.0
 92
        0
 66
   257
 43
1.0
 76
     1
 77
     6
 78
     2
 67
     7
 79
     5
170
     0
171
     0
290
     0
174
     0
 93
        1
 44
0.0
173
     0
291
     0
 45
0.0
1001
ACAD
1000
AcDbSavedByObjectVersion
1070
     0
  0
VISUALSTYLE
  5
4C3
102
{ACAD_XDICTIONARY
360
A53
102
}
102
{ACAD_REACTORS
330
4BE
102
}
330
4BE
100
AcDbVisualStyle
  2
Basic
 70
     7
 71
     1
 72
     0
 73
     1
 90
        0
 40
-0.6
 41
-30.0
 62
     5
 63
     7
 74
     0
 91
        4
 64
     7
 65
   257
 75
     1
175
     1
 42
1.0
 92
        8
 66
     7
 43
1.0
 76
     1
 77
     6
 78
     2
 67
     7
 79
     5
170
     0
171
     0
290
     0
174
     0
 93
        1
 44
0.0
173
     0
291
     1
 45
0.0
1001
ACAD
1000
AcDbSavedByObjectVersion
1070
     0
  0
VISUALSTYLE
  5
4CA
102
{ACAD_XDICTIONARY
360
A61
102
}
102
{ACAD_REACTORS
330
4BE
102
}
330
4BE
100
AcDbVisualStyle
  2
Brighten
 70
    12
 71
     2
 72
     2
 73
     0
 90
        0
 40
-0.6
 41
-30.0
 62
     5
 63
     7
 74
     1
 91
        4
 64
     7
 65
   257
 75
     1
175
     1
 42
1.0
 92
        8
 66
     7
 43
1.0
 76
     1
 77
     6
 78
     2
 67
     7
 79
     5
170
     0
171
     0
290
     0
174
     0
 93
        1
 44
50.0
173
     0
291
     1
 45
0.0
1001
ACAD
1000
AcDbSavedByObjectVersion
1070
     0
  0
VISUALSTYLE
  5
4CE
102
{ACAD_XDICTIONARY
360
A69
102
}
102
{ACAD_REACTORS
330
4BE
102
}
330
4BE
100
AcDbVisualStyle
  2
ColorChange
 70
    16
 71
     2
 72
     2
 73
     3
 90
        0
 40
-0.6
 41
-30.0
 62
     5
 63
     8
 74
     1
 91
        4
 64
     7
 65
   257
 75
     1
175
     1
 42
1.0
 92
        8
 66
     8
 43
1.0
 76
     1
 77
     6
 78
     2
 67
     7
 79
     5
170
     0
171
     0
290
     0
174
     0
 93
        1
 44
0.0
173
     0
291
     1
 45
0.0
1001
ACAD
1000
AcDbSavedByObjectVersion
1070
     0
  0
VISUALSTYLE
  5
4C7
102
{ACAD_XDICTIONARY
360
A5B
102
}
102
{ACAD_REACTORS
330
4BE
102
}
330
4BE
100
AcDbVisualStyle
  2
Conceptual
 70
     9
 71
     3
 72
     2
 73
     0
 90
        0
 40
-0.6
 41
-30.0
 62
     5
 63
     7
 74
     2
 91
        2
 64
     7
 65
   257
 75
     1
175
     1
 42
179.0
 92
        8
 66
     7
 43
1.0
 76
     1
 77
     6
 78
     2
 67
     7
 79
     3
170
     0
171
     0
290
     0
174
     0
 93
        1
 44
0.0
173
     0
291
     0
 45
0.0
1001
ACAD
1000
AcDbSavedByObjectVersion
1070
     0
  0
VISUALSTYLE
  5
4C9
102
{ACAD_XDICTIONARY
360
A5F
102
}
102
{ACAD_REACTORS
330
4BE
102
}
330
4BE
100
AcDbVisualStyle
  2
Dim
 70
    11
 71
     2
 72
     2
 73
     0
 90
        0
 40
-0.6
 41
-30.0
 62
     5
 63
     7
 74
     1
 91
        4
 64
     7
 65
   257
 75
     1
175
     1
 42
1.0
 92
        8
 66
     7
 43
1.0
 76
     1
 77
     6
 78
     2
 67
     7
 79
     5
170
     0
171
     0
290
     0
174
     0
 93
        1
 44
-50.0
173
     0
291
     1
 45
0.0
1001
ACAD
1000
AcDbSavedByObjectVersion
1070
     0
  0
VISUALSTYLE
  5
4D1
102
{ACAD_XDICTIONARY
360
A6F
102
}
102
{ACAD_REACTORS
330
4BE
102
}
330
4BE
100
AcDbVisualStyle
  2
EdgeColorOff
 70
    22
 71
     2
 72
     2
 73
     0
 90
        0
 40
-0.6
 41
-30.0
 62
     5
 63
     7
 74
     1
 91
        4
 64
     7
 65
   257
 75
     1
175
     1
 42
1.0
 92
        8
 66
     7
 43
1.0
 76
     1
 77
     6
 78
     2
 67
     7
 79
     5
170
     0
171
     0
290
     0
174
     0
 93
        1
 44
0.0
173
     0
291
     1
 45
0.0
1001
ACAD
1000
AcDbSavedByObjectVersion
1070
     0
  0
VISUALSTYLE
  5
4CD
102
{ACAD_XDICTIONARY
360
A67
102
}
102
{ACAD_REACTORS
330
4BE
102
}
330
4BE
100
AcDbVisualStyle
  2
Facepattern
 70
    15
 71
     2
 72
     2
 73
     0
 90
        0
 40
-0.6
 41
-30.0
 62
     5
 63
     7
 74
     1
 91
        4
 64
     7
 65
   257
 75
     1
175
     1
 42
1.0
 92
        8
 66
     7
 43
1.0
 76
     1
 77
     6
 78
     2
 67
     7
 79
     5
170
     0
171
     0
290
     0
174
     0
 93
        1
 44
0.0
173
     0
291
     1
 45
0.0
1001
ACAD
1000
AcDbSavedByObjectVersion
1070
     0
  0
VISUALSTYLE
  5
4BF
102
{ACAD_XDICTIONARY
360
A4B
102
}
102
{ACAD_REACTORS
330
4BE
102
}
330
4BE
100
AcDbVisualStyle
  2
Flat
 70
     0
 71
     2
 72
     1
 73
     1
 90
        2
 40
-0.6
 41
30.0
 62
     5
 63
     7
 74
     0
 91
        4
 64
     7
 65
   257
 75
     1
175
     1
 42
1.0
 92
        8
 66
     7
 43
1.0
 76
     1
 77
     6
 78
     2
 67
     7
 79
     5
170
     0
171
     0
290
     0
174
     0
 93
       13
 44
0.0
173
     0
291
     1
 45
0.0
1001
ACAD
1000
AcDbSavedByObjectVersion
1070
     0
  0
VISUALSTYLE
  5
4C0
102
{ACAD_XDICTIONARY
360
A4D
102
}
102
{ACAD_REACTORS
330
4BE
102
}
330
4BE
100
AcDbVisualStyle
  2
FlatWithEdges
 70
     1
 71
     2
 72
     1
 73
     1
 90
        2
 40
-0.6
 41
30.0
 62
     5
 63
     7
 74
     1
 91
        4
 64
     7
 65
   257
 75
     1
175
     1
 42
1.0
 92
        0
 66
   257
 43
1.0
 76
     1
 77
     6
 78
     2
 67
     7
 79
     5
170
     0
171
     0
290
     0
174
     0
 93
       13
 44
0.0
173
     0
291
     1
 45
0.0
1001
ACAD
1000
AcDbSavedByObjectVersion
1070
     0
  0
VISUALSTYLE
  5
4C1
102
{ACAD_XDICTIONARY
360
A4F
102
}
102
{ACAD_REACTORS
330
4BE
102
}
330
4BE
100
AcDbVisualStyle
  2
Gouraud
 70
     2
 71
     2
 72
     2
 73
     1
 90
        2
 40
-0.6
 41
30.0
 62
     5
 63
     7
 74
     0
 91
        4
 64
     7
 65
   257
 75
     1
175
     1
 42
1.0
 92
        0
 66
     7
 43
1.0
 76
     1
 77
     6
 78
     2
 67
     7
 79
     5
170
     0
171
     0
290
     0
174
     0
 93
       13
 44
0.0
173
     0
291
     1
 45
0.0
1001
ACAD
1000
AcDbSavedByObjectVersion
1070
     0
  0
VISUALSTYLE
  5
4C2
102
{ACAD_XDICTIONARY
360
A51
102
}
102
{ACAD_REACTORS
330
4BE
102
}
330
4BE
100
AcDbVisualStyle
  2
GouraudWithEdges
 70
     3
 71
     2
 72
     2
 73
     1
 90
        2
 40
-0.6
 41
30.0
 62
     5
 63
     7
 74
     1
 91
        4
 64
     7
 65
   257
 75
     1
175
     1
 42
1.0
 92
        0
 66
   257
 43
1.0
 76
     1
 77
     6
 78
     2
 67
     7
 79
     5
170
     0
171
     0
290
     0
174
     0
 93
       13
 44
0.0
173
     0
291
     1
 45
0.0
1001
ACAD
1000
AcDbSavedByObjectVersion
1070
     0
  0
VISUALSTYLE
  5
9DD
102
{ACAD_XDICTIONARY
360
A77
102
}
102
{ACAD_REACTORS
330
4BE
102
}
330
4BE
100
AcDbVisualStyle
  2
Hidden
 70
     6
 71
     1
 72
     2
 73
     2
 90
        0
 40
-0.6
 41
-30.0
 62
     5
 63
     7
 74
     2
 91
        2
 64
     7
 65
   257
 75
     2
175
     1
 42
40.0
 92
        0
 66
   257
 43
1.0
 76
     1
 77
     6
 78
     2
 67
     7
 79
     3
170
     0
171
     0
290
     0
174
     0
 93
        1
 44
0.0
173
     0
291
     0
 45
0.0
1001
ACAD
1000
AcDbSavedByObjectVersion
1070
     0
  0
VISUALSTYLE
  5
4CF
102
{ACAD_XDICTIONARY
360
A6B
102
}
102
{ACAD_REACTORS
330
4BE
102
}
330
4BE
100
AcDbVisualStyle
  2
JitterOff
 70
    20
 71
     2
 72
     2
 73
     0
 90
        0
 40
-0.6
 41
-30.0
 62
     5
 63
     7
 74
     1
 91
        4
 64
     7
 65
   257
 75
     1
175
     1
 42
1.0
 92
       10
 66
     7
 43
1.0
 76
     1
 77
     6
 78
     2
 67
     7
 79
     5
170
     0
171
     0
290
     0
174
     0
 93
        1
 44
0.0
173
     0
291
     1
 45
0.0
1001
ACAD
1000
AcDbSavedByObjectVersion
1070
     0
  0
VISUALSTYLE
  5
4CC
102
{ACAD_XDICTIONARY
360
A65
102
}
102
{ACAD_REACTORS
330
4BE
102
}
330
4BE
100
AcDbVisualStyle
  2
Linepattern
 70
    14
 71
     2
 72
     2
 73
     0
 90
        0
 40
-0.6
 41
-30.0
 62
     5
 63
     7
 74
     1
 91
        4
 64
     7
 65
   257
 75
     7
175
     7
 42
1.0
 92
        8
 66
     7
 43
1.0
 76
     1
 77
     6
 78
     2
 67
     7
 79
     5
170
     0
171
     0
290
     0
174
     0
 93
        1
 44
0.0
173
     0
291
     1
 45
0.0
1001
ACAD
1000
AcDbSavedByObjectVersion
1070
     0
  0
VISUALSTYLE
  5
4D0
102
{ACAD_XDICTIONARY
360
A6D
102
}
102
{ACAD_REACTORS
330
4BE
102
}
330
4BE
100
AcDbVisualStyle
  2
OverhangOff
 70
    21
 71
     2
 72
     2
 73
     0
 90
        0
 40
-0.6
 41
-30.0
 62
     5
 63
     7
 74
     1
 91
        4
 64
     7
 65
   257
 75
     1
175
     1
 42
1.0
 92
        9
 66
     7
 43
1.0
 76
     1
 77
     6
 78
     2
 67
     7
 79
     5
170
     0
171
     0
290
     0
174
     0
 93
        1
 44
0.0
173
     0
291
     1
 45
0.0
1001
ACAD
1000
AcDbSavedByObjectVersion
1070
     0
  0
VISUALSTYLE
  5
4C8
102
{ACAD_XDICTIONARY
360
A5D
102
}
102
{ACAD_REACTORS
330
4BE
102
}
330
4BE
100
AcDbVisualStyle
  2
Realistic
 70
     8
 71
     2
 72
     2
 73
     0
 90
        0
 40
-0.6
 41
-30.0
 62
     5
 63
     7
 74
     1
 91
        0
 64
     7
 65
   257
 75
     1
175
     1
 42
1.0
 92
        8
 66
     8
 43
1.0
 76
     1
 77
     6
 78
     2
 67
     7
 79
     5
170
     0
171
     0
290
     0
174
     0
 93
       13
 44
0.0
173
     0
291
     0
 45
0.0
1001
ACAD
1000
AcDbSavedByObjectVersion
1070
     0
  0
VISUALSTYLE
  5
9E2
102
{ACAD_XDICTIONARY
360
A81
102
}
102
{ACAD_REACTORS
330
4BE
102
}
330
4BE
100
AcDbVisualStyle
  2
Shaded
 70
    27
 71
     2
 72
     2
 73
     1
 90
        2
 40
-0.6
 41
30.0
 62
     5
 63
     7
 74
     0
 91
        4
 64
     7
 65
   257
 75
     1
175
     1
 42
1.0
 92
        8
 66
   257
 43
1.0
 76
     1
 77
     6
 78
     2
 67
     8
 79
     3
170
     0
171
     0
290
     0
174
     0
 93
        5
 44
0.0
173
     0
291
     0
 45
0.0
1001
ACAD
1000
AcDbSavedByObjectVersion
1070
     0
  0
VISUALSTYLE
  5
9E1
102
{ACAD_XDICTIONARY
360
A7F
102
}
102
{ACAD_REACTORS
330
4BE
102
}
330
4BE
100
AcDbVisualStyle
  2
Shaded with edges
 70
    26
 71
     2
 72
     2
 73
     1
 90
        2
 40
-0.6
 41
30.0
 62
     5
 63
     7
 74
     1
 91
        2
 64
     7
 65
   257
 75
     2
175
     1
 42
1.0
 92
        8
 66
   257
 43
1.0
 76
     1
 77
     6
 78
     2
 67
     7
 79
     3
170
     0
171
     0
290
     0
174
     0
 93
        5
 44
0.0
173
     0
291
     0
 45
0.0
1001
ACAD
1000
AcDbSavedByObjectVersion
1070
     0
  0
VISUALSTYLE
  5
9DE
102
{ACAD_XDICTIONARY
360
A79
102
}
102
{ACAD_REACTORS
330
4BE
102
}
330
4BE
100
AcDbVisualStyle
  2
Shades of Gray
 70
    23
 71
     2
 72
     2
 73
     3
 90
        0
 40
-0.6
 41
-30.0
 62
     5
 63
     7
 74
     2
 91
        2
 64
     7
 65
     7
 75
     1
175
     1
 42
40.0
 92
        8
 66
     7
 43
1.0
 76
     1
 77
     6
 78
     2
 67
     7
 79
     3
170
     0
171
     0
290
     0
174
     0
 93
        1
 44
0.0
173
     0
291
     0
 45
0.0
1001
ACAD
1000
AcDbSavedByObjectVersion
1070
     0
  0
VISUALSTYLE
  5
9DF
102
{ACAD_XDICTIONARY
360
A7B
102
}
102
{ACAD_REACTORS
330
4BE
102
}
330
4BE
100
AcDbVisualStyle
  2
Sketchy
 70
    24
 71
     1
 72
     2
 73
     2
 90
        0
 40
-0.6
 41
-30.0
 62
     5
 63
     7
 74
     2
 91
        2
 64
     7
 65
     7
 75
     1
175
     1
 42
40.0
 92
       11
 66
     7
 43
1.0
 76
     1
 77
     6
 78
     2
 67
     7
 79
     6
170
     0
171
     0
290
     0
174
     0
 93
        1
 44
0.0
173
     0
291
     0
 45
0.0
1001
ACAD
1000
AcDbSavedByObjectVersion
1070
     0
  0
VISUALSTYLE
  5
4CB
102
{ACAD_XDICTIONARY
360
A63
102
}
102
{ACAD_REACTORS
330
4BE
102
}
330
4BE
100
AcDbVisualStyle
  2
Thicken
 70
    13
 71
     2
 72
     2
 73
     0
 90
        0
 40
-0.6
 41
-30.0
 62
     5
 63
     7
 74
     1
 91
        4
 64
     7
 65
   257
 75
     1
175
     1
 42
1.0
 92
       12
 66
     7
 43
1.0
 76
     1
 77
     6
 78
     2
 67
     7
 79
     5
170
     0
171
     0
290
     0
174
     0
 93
        1
 44
0.0
173
     0
291
     1
 45
0.0
1001
ACAD
1000
AcDbSavedByObjectVersion
1070
     0
  0
VISUALSTYLE
  5
9DC
102
{ACAD_XDICTIONARY
360
A75
102
}
102
{ACAD_REACTORS
330
4BE
102
}
330
4BE
100
AcDbVisualStyle
  2
Wireframe
 70
     5
 71
     0
 72
     2
 73
     0
 90
        0
 40
-0.6
 41
-30.0
 62
     5
 63
     7
 74
     1
 91
        4
 64
     7
 65
   257
 75
     1
175
     1
 42
1.0
 92
        0
 66
   257
 43
1.0
 76
     1
 77
     6
 78
     2
 67
     7
 79
     3
170
     0
171
     0
290
     0
174
     0
 93
        1
 44
0.0
173
     0
291
     0
 45
0.0
1001
ACAD
1000
AcDbSavedByObjectVersion
1070
     0
  0
VISUALSTYLE
  5
9E0
102
{ACAD_XDICTIONARY
360
A7D
102
}
102
{ACAD_REACTORS
330
4BE
102
}
330
4BE
100
AcDbVisualStyle
  2
X-Ray
 70
    25
 71
     2
 72
     2
 73
     1
 90
        1
 40
0.5
 41
-30.0
 62
     5
 63
     7
 74
     1
 91
        0
 64
     7
 65
   257
 75
     1
175
     1
 42
1.0
 92
        8
 66
     7
 43
1.0
 76
     1
 77
     6
 78
     2
 67
     7
 79
     3
170
     0
171
     0
290
     0
174
     0
 93
       13
 44
0.0
173
     0
291
     0
 45
0.0
1001
ACAD
1000
AcDbSavedByObjectVersion
1070
     0
  0
DICTIONARYVAR
  5
6F0
102
{ACAD_REACTORS
330
6ED
102
}
330
6ED
100
DictionaryVariables
280
     0
  1
1:1
  0
DICTIONARYVAR
  5
6EF
102
{ACAD_REACTORS
330
6ED
102
}
330
6ED
100
DictionaryVariables
280
     0
  1
STANDARD
  0
DICTIONARYVAR
  5
6EE
102
{ACAD_REACTORS
330
6ED
102
}
330
6ED
100
DictionaryVariables
280
     0
  1
STANDARD
  0
DICTIONARYVAR
  5
9FF
102
{ACAD_REACTORS
330
6ED
102
}
330
6ED
100
DictionaryVariables
280
     0
  1
Metric50
  0
DICTIONARYVAR
  5
A00
102
{ACAD_REACTORS
330
6ED
102
}
330
6ED
100
DictionaryVariables
280
     0
  1
Metric50
  0
DICTIONARYVAR
  5
6F3
102
{ACAD_REACTORS
330
6ED
102
}
330
6ED
100
DictionaryVariables
280
     0
  1
1
  0
DICTIONARYVAR
  5
6F2
102
{ACAD_REACTORS
330
6ED
102
}
330
6ED
100
DictionaryVariables
280
     0
  1
0
  0
DICTIONARYVAR
  5
9D9
102
{ACAD_REACTORS
330
6ED
102
}
330
6ED
100
DictionaryVariables
280
     0
  1
1
  0
DICTIONARYVAR
  5
9DA
102
{ACAD_REACTORS
330
6ED
102
}
330
6ED
100
DictionaryVariables
280
     0
  1
15
  0
DICTIONARYVAR
  5
9D8
102
{ACAD_REACTORS
330
6ED
102
}
330
6ED
100
DictionaryVariables
280
     0
  1
0
  0
DICTIONARYVAR
  5
9D7
102
{ACAD_REACTORS
330
6ED
102
}
330
6ED
100
DictionaryVariables
280
     0
  1
0
  0
DICTIONARYVAR
  5
A3A
102
{ACAD_REACTORS
330
6ED
102
}
330
6ED
100
DictionaryVariables
280
     0
  1
1
  0
DICTIONARYVAR
  5
6F1
102
{ACAD_REACTORS
330
6ED
102
}
330
6ED
100
DictionaryVariables
280
     0
  1
127
  0
DICTIONARYVAR
  5
A3B
102
{ACAD_REACTORS
330
6ED
102
}
330
6ED
100
DictionaryVariables
280
     0
  1
2
  0
DICTIONARY
  5
A47
102
{ACAD_REACTORS
330
A45
102
}
330
A45
100
AcDbDictionary
281
     1
  0
DICTIONARY
  5
A46
102
{ACAD_REACTORS
330
A45
102
}
330
A45
100
AcDbDictionary
281
     1
  3
1535969672576
350
A40
  3
1535969672592
350
A41
  3
1535969672608
350
A42
  3
1535969672624
350
A43
  3
1535969672640
350
A44
  0
DICTIONARY
  5
4FE
102
{ACAD_REACTORS
330
21F
102
}
330
21F
100
AcDbDictionary
281
     1
  3
PH_GRPMEMBERS
350
4FF
  0
DICTIONARY
  5
549
102
{ACAD_REACTORS
330
21F
102
}
330
21F
100
AcDbDictionary
281
     1
  3
$PH$AAAA
350
54A
  3
PH_GRPMEMBERS
350
54E
  0
DICTIONARY
  5
76E
102
{ACAD_REACTORS
330
21F
102
}
330
21F
100
AcDbDictionary
281
     1
  3
PH_GRPMEMBERS
350
76F
  0
DICTIONARY
  5
A85
330
9E6
100
AcDbDictionary
280
     1
281
     1
  3
ACAD_XREC_ROUNDTRIP
360
A86
  0
DICTIONARY
  5
A73
330
4EC
100
AcDbDictionary
280
     1
281
     1
  3
ACAD_XREC_ROUNDTRIP
360
A74
  0
DICTIONARY
  5
9C4
330
4EB
100
AcDbDictionary
280
     1
281
     1
  3
ACAD_XREC_ROUNDTRIP
360
A72
  0
DICTIONARY
  5
4AF
330
4AE
100
AcDbDictionary
280
     1
281
     1
  3
ACAD_XREC_ROUNDTRIP
360
A49
  3
BUMPTILE
360
4B1
  3
DIFFUSETILE
360
4B0
  3
OPACITYTILE
360
4B4
  3
REFLECTIONTILE
360
4B3
  3
REFRACTIONTILE
360
4B5
  3
SPECULARTILE
360
4B2
  0
DICTIONARY
  5
4A7
330
4A6
100
AcDbDictionary
280
     1
281
     1
  3
ACAD_XREC_ROUNDTRIP
360
A48
  3
BUMPTILE
360
4A9
  3
DIFFUSETILE
360
4A8
  3
OPACITYTILE
360
4AC
  3
REFLECTIONTILE
360
4AB
  3
REFRACTIONTILE
360
4AD
  3
SPECULARTILE
360
4AA
  0
DICTIONARY
  5
4B7
330
4B6
100
AcDbDictionary
280
     1
281
     1
  3
ACAD_XREC_ROUNDTRIP
360
A4A
  3
BUMPTILE
360
4B9
  3
DIFFUSETILE
360
4B8
  3
OPACITYTILE
360
4BC
  3
REFLECTIONTILE
360
4BB
  3
REFRACTIONTILE
360
4BD
  3
SPECULARTILE
360
4BA
  0
DICTIONARY
  5
A83
330
9E4
100
AcDbDictionary
280
     1
281
     1
  3
ACAD_XREC_ROUNDTRIP
360
A84
  0
DICTIONARY
  5
6B6
330
4D4
100
AcDbDictionary
280
     1
281
     1
  3
ACAD_ROUNDTRIP_2008_TABLESTYLE_CELLSTYLEMAP
360
A3C
  3
ACAD_XREC_ROUNDTRIP
360
A71
  0
DICTIONARY
  5
A55
330
4C4
100
AcDbDictionary
280
     1
281
     1
  3
ACAD_XREC_ROUNDTRIP
360
A56
  0
DICTIONARY
  5
A59
330
4C6
100
AcDbDictionary
280
     1
281
     1
  3
ACAD_XREC_ROUNDTRIP
360
A5A
  0
DICTIONARY
  5
A57
330
4C5
100
AcDbDictionary
280
     1
281
     1
  3
ACAD_XREC_ROUNDTRIP
360
A58
  0
DICTIONARY
  5
A53
330
4C3
100
AcDbDictionary
280
     1
281
     1
  3
ACAD_XREC_ROUNDTRIP
360
A54
  0
DICTIONARY
  5
A61
330
4CA
100
AcDbDictionary
280
     1
281
     1
  3
ACAD_XREC_ROUNDTRIP
360
A62
  0
DICTIONARY
  5
A69
330
4CE
100
AcDbDictionary
280
     1
281
     1
  3
ACAD_XREC_ROUNDTRIP
360
A6A
  0
DICTIONARY
  5
A5B
330
4C7
100
AcDbDictionary
280
     1
281
     1
  3
ACAD_XREC_ROUNDTRIP
360
A5C
  0
DICTIONARY
  5
A5F
330
4C9
100
AcDbDictionary
280
     1
281
     1
  3
ACAD_XREC_ROUNDTRIP
360
A60
  0
DICTIONARY
  5
A6F
330
4D1
100
AcDbDictionary
280
     1
281
     1
  3
ACAD_XREC_ROUNDTRIP
360
A70
  0
DICTIONARY
  5
A67
330
4CD
100
AcDbDictionary
280
     1
281
     1
  3
ACAD_XREC_ROUNDTRIP
360
A68
  0
DICTIONARY
  5
A4B
330
4BF
100
AcDbDictionary
280
     1
281
     1
  3
ACAD_XREC_ROUNDTRIP
360
A4C
  0
DICTIONARY
  5
A4D
330
4C0
100
AcDbDictionary
280
     1
281
     1
  3
ACAD_XREC_ROUNDTRIP
360
A4E
  0
DICTIONARY
  5
A4F
330
4C1
100
AcDbDictionary
280
     1
281
     1
  3
ACAD_XREC_ROUNDTRIP
360
A50
  0
DICTIONARY
  5
A51
330
4C2
100
AcDbDictionary
280
     1
281
     1
  3
ACAD_XREC_ROUNDTRIP
360
A52
  0
DICTIONARY
  5
A77
330
9DD
100
AcDbDictionary
280
     1
281
     1
  3
ACAD_XREC_ROUNDTRIP
360
A78
  0
DICTIONARY
  5
A6B
330
4CF
100
AcDbDictionary
280
     1
281
     1
  3
ACAD_XREC_ROUNDTRIP
360
A6C
  0
DICTIONARY
  5
A65
330
4CC
100
AcDbDictionary
280
     1
281
     1
  3
ACAD_XREC_ROUNDTRIP
360
A66
  0
DICTIONARY
  5
A6D
330
4D0
100
AcDbDictionary
280
     1
281
     1
  3
ACAD_XREC_ROUNDTRIP
360
A6E
  0
DICTIONARY
  5
A5D
330
4C8
100
AcDbDictionary
280
     1
281
     1
  3
ACAD_XREC_ROUNDTRIP
360
A5E
  0
DICTIONARY
  5
A81
330
9E2
100
AcDbDictionary
280
     1
281
     1
  3
ACAD_XREC_ROUNDTRIP
360
A82
  0
DICTIONARY
  5
A7F
330
9E1
100
AcDbDictionary
280
     1
281
     1
  3
ACAD_XREC_ROUNDTRIP
360
A80
  0
DICTIONARY
  5
A79
330
9DE
100
AcDbDictionary
280
     1
281
     1
  3
ACAD_XREC_ROUNDTRIP
360
A7A
  0
DICTIONARY
  5
A7B
330
9DF
100
AcDbDictionary
280
     1
281
     1
  3
ACAD_XREC_ROUNDTRIP
360
A7C
  0
DICTIONARY
  5
A63
330
4CB
100
AcDbDictionary
280
     1
281
     1
  3
ACAD_XREC_ROUNDTRIP
360
A64
  0
DICTIONARY
  5
A75
330
9DC
100
AcDbDictionary
280
     1
281
     1
  3
ACAD_XREC_ROUNDTRIP
360
A76
  0
DICTIONARY
  5
A7D
330
9E0
100
AcDbDictionary
280
     1
281
     1
  3
ACAD_XREC_ROUNDTRIP
360
A7E
  0
XRECORD
  5
A40
102
{ACAD_REACTORS
330
A46
102
}
330
A46
100
AcDbXrecord
280
     1
  1
AcDb_Thumbnail_Schema
102
{ATTRRECORD
341
A41
  2
AcDbDs::TreatedAsObjectData
280
     1
291
     1
102
ATTRRECORD}
102
{ATTRRECORD
341
A42
  2
AcDbDs::Legacy
280
     1
291
     1
102
ATTRRECORD}
  2
AcDbDs::ID
280
    10
 91
        8
102
{ATTRRECORD
341
A43
  2
AcDs:Indexable
280
     1
291
     1
102
ATTRRECORD}
102
{ATTRRECORD
341
A44
  2
AcDbDs::HandleAttribute
280
     7
282
     1
102
ATTRRECORD}
  2
Thumbnail_Data
280
    15
 91
        0
  0
XRECORD
  5
A41
102
{ACAD_REACTORS
330
A46
102
}
330
A46
100
AcDbXrecord
280
     1
  1
AcDbDs::TreatedAsObjectDataSchema
  2
AcDbDs::TreatedAsObjectData
280
     1
 91
        0
  0
XRECORD
  5
A42
102
{ACAD_REACTORS
330
A46
102
}
330
A46
100
AcDbXrecord
280
     1
  1
AcDbDs::LegacySchema
  2
AcDbDs::Legacy
280
     1
 91
        0
  0
XRECORD
  5
A43
102
{ACAD_REACTORS
330
A46
102
}
330
A46
100
AcDbXrecord
280
     1
  1
AcDbDs::IndexedPropertySchema
  2
AcDs:Indexable
280
     1
 91
        0
  0
XRECORD
  5
A44
102
{ACAD_REACTORS
330
A46
102
}
330
A46
100
AcDbXrecord
280
     1
  1
AcDbDs::HandleAttributeSchema
  2
AcDbDs::HandleAttribute
280
     7
 91
        1
284
     1
  0
PH_GROUP
  5
4FF
102
{ACAD_REACTORS
330
4FE
102
}
330
4FE
  0
DICTIONARY
  5
54A
102
{ACAD_REACTORS
330
549
102
}
330
549
100
AcDbDictionary
281
     1
  3
$PH$AAAA
350
54B
  3
PH_GRPMEMBERS
350
54D
  0
PH_GROUP
  5
54E
102
{ACAD_REACTORS
330
549
102
}
330
549
  0
PH_GROUP
  5
76F
102
{ACAD_REACTORS
330
76E
102
}
330
76E
  0
XRECORD
  5
A86
102
{ACAD_REACTORS
330
A85
102
}
330
A85
100
AcDbXrecord
280
     1
102
DISPLAYNAME
  1
Metric50
102
FLAGS
 90
        0
  0
XRECORD
  5
A74
102
{ACAD_REACTORS
330
A73
102
}
330
A73
100
AcDbXrecord
280
     1
102
SHADEPLOT
 70
     0
102
SHADEPLOTRESLEVEL
 70
     2
102
SHADEPLOTCUSTOMDPI
 70
   300
  0
XRECORD
  5
A72
102
{ACAD_REACTORS
330
9C4
102
}
330
9C4
100
AcDbXrecord
280
     1
102
SHADEPLOT
 70
     0
102
SHADEPLOTRESLEVEL
 70
     2
102
SHADEPLOTCUSTOMDPI
 70
   300
  0
XRECORD
  5
A49
102
{ACAD_REACTORS
330
4AF
102
}
330
4AF
100
AcDbXrecord
280
     1
102
MATERIAL
148
0.0
149
0.0
149
0.0
 93
        0
 94
      127
282
     0
 72
     0
 77
     0
171
     0
175
     0
179
     0
273
     0
  0
XRECORD
  5
4B1
102
{ACAD_REACTORS
330
4AF
102
}
330
4AF
100
AcDbXrecord
280
     1
270
     1
271
     1
  0
XRECORD
  5
4B0
102
{ACAD_REACTORS
330
4AF
102
}
330
4AF
100
AcDbXrecord
280
     1
270
     1
271
     1
  0
XRECORD
  5
4B4
102
{ACAD_REACTORS
330
4AF
102
}
330
4AF
100
AcDbXrecord
280
     1
270
     1
271
     1
  0
XRECORD
  5
4B3
102
{ACAD_REACTORS
330
4AF
102
}
330
4AF
100
AcDbXrecord
280
     1
270
     1
271
     1
  0
XRECORD
  5
4B5
102
{ACAD_REACTORS
330
4AF
102
}
330
4AF
100
AcDbXrecord
280
     1
270
     1
271
     1
  0
XRECORD
  5
4B2
102
{ACAD_REACTORS
330
4AF
102
}
330
4AF
100
AcDbXrecord
280
     1
270
     1
271
     1
  0
XRECORD
  5
A48
102
{ACAD_REACTORS
330
4A7
102
}
330
4A7
100
AcDbXrecord
280
     1
102
MATERIAL
148
0.0
149
0.0
149
0.0
 93
        0
 94
      127
282
     0
 72
     0
 77
     0
171
     0
175
     0
179
     0
273
     0
  0
XRECORD
  5
4A9
102
{ACAD_REACTORS
330
4A7
102
}
330
4A7
100
AcDbXrecord
280
     1
270
     1
271
     1
  0
XRECORD
  5
4A8
102
{ACAD_REACTORS
330
4A7
102
}
330
4A7
100
AcDbXrecord
280
     1
270
     1
271
     1
  0
XRECORD
  5
4AC
102
{ACAD_REACTORS
330
4A7
102
}
330
4A7
100
AcDbXrecord
280
     1
270
     1
271
     1
  0
XRECORD
  5
4AB
102
{ACAD_REACTORS
330
4A7
102
}
330
4A7
100
AcDbXrecord
280
     1
270
     1
271
     1
  0
XRECORD
  5
4AD
102
{ACAD_REACTORS
330
4A7
102
}
330
4A7
100
AcDbXrecord
280
     1
270
     1
271
     1
  0
XRECORD
  5
4AA
102
{ACAD_REACTORS
330
4A7
102
}
330
4A7
100
AcDbXrecord
280
     1
270
     1
271
     1
  0
XRECORD
  5
A4A
102
{ACAD_REACTORS
330
4B7
102
}
330
4B7
100
AcDbXrecord
280
     1
102
MATERIAL
148
0.0
149
0.0
149
0.0
 93
        0
 94
      127
282
     0
 72
     0
 77
     0
171
     0
175
     0
179
     0
273
     0
  0
XRECORD
  5
4B9
102
{ACAD_REACTORS
330
4B7
102
}
330
4B7
100
AcDbXrecord
280
     1
270
     1
271
     1
  0
XRECORD
  5
4B8
102
{ACAD_REACTORS
330
4B7
102
}
330
4B7
100
AcDbXrecord
280
     1
270
     1
271
     1
  0
XRECORD
  5
4BC
102
{ACAD_REACTORS
330
4B7
102
}
330
4B7
100
AcDbXrecord
280
     1
270
     1
271
     1
  0
XRECORD
  5
4BB
102
{ACAD_REACTORS
330
4B7
102
}
330
4B7
100
AcDbXrecord
280
     1
270
     1
271
     1
  0
XRECORD
  5
4BD
102
{ACAD_REACTORS
330
4B7
102
}
330
4B7
100
AcDbXrecord
280
     1
270
     1
271
     1
  0
XRECORD
  5
4BA
102
{ACAD_REACTORS
330
4B7
102
}
330
4B7
100
AcDbXrecord
280
     1
270
     1
271
     1
  0
XRECORD
  5
A84
102
{ACAD_REACTORS
330
A83
102
}
330
A83
100
AcDbXrecord
280
     1
102
DISPLAYNAME
  1
Metric50
102
FLAGS
 90
        0
  0
CELLSTYLEMAP
  5
A3C
102
{ACAD_REACTORS
330
6B6
102
}
330
6B6
100
AcDbCellStyleMap
 90
        3
300
CELLSTYLE
  1
TABLEFORMAT_BEGIN
 90
        5
170
     1
 91
        0
 92
    32768
 62
   257
 93
        1
300
CONTENTFORMAT
  1
CONTENTFORMAT_BEGIN
 90
        0
 91
        0
 92
      512
 93
        0
300

 40
0.0
140
1.0
 94
        5
 62
     0
340
F
144
6.0
309
CONTENTFORMAT_END
171
     1
301
MARGIN
  1
CELLMARGIN_BEGIN
 40
1.5
 40
1.5
 40
1.5
 40
1.5
 40
4.5
 40
4.5
309
CELLMARGIN_END
 94
        6
 95
        1
302
GRIDFORMAT
  1
GRIDFORMAT_BEGIN
 90
        0
 91
        1
 62
     0
 92
       -2
340
0
 93
        0
 40
1.125
309
GRIDFORMAT_END
 95
        2
302
GRIDFORMAT
  1
GRIDFORMAT_BEGIN
 90
        0
 91
        1
 62
     0
 92
       -2
340
0
 93
        0
 40
1.125
309
GRIDFORMAT_END
 95
        4
302
GRIDFORMAT
  1
GRIDFORMAT_BEGIN
 90
        0
 91
        1
 62
     0
 92
       -2
340
0
 93
        0
 40
1.125
309
GRIDFORMAT_END
 95
        8
302
GRIDFORMAT
  1
GRIDFORMAT_BEGIN
 90
        0
 91
        1
 62
     0
 92
       -2
340
0
 93
        0
 40
1.125
309
GRIDFORMAT_END
 95
       16
302
GRIDFORMAT
  1
GRIDFORMAT_BEGIN
 90
        0
 91
        1
 62
     0
 92
       -2
340
0
 93
        0
 40
1.125
309
GRIDFORMAT_END
 95
       32
302
GRIDFORMAT
  1
GRIDFORMAT_BEGIN
 90
        0
 91
        1
 62
     0
 92
       -2
340
0
 93
        0
 40
1.125
309
GRIDFORMAT_END
309
TABLEFORMAT_END
  1
CELLSTYLE_BEGIN
 90
        1
 91
        1
300
_TITLE
309
CELLSTYLE_END
300
CELLSTYLE
  1
TABLEFORMAT_BEGIN
 90
        5
170
     1
 91
        0
 92
        0
 62
   257
 93
        1
300
CONTENTFORMAT
  1
CONTENTFORMAT_BEGIN
 90
        0
 91
        0
 92
      512
 93
        0
300

 40
0.0
140
1.0
 94
        5
 62
     0
340
F
144
4.5
309
CONTENTFORMAT_END
171
     1
301
MARGIN
  1
CELLMARGIN_BEGIN
 40
1.5
 40
1.5
 40
1.5
 40
1.5
 40
4.5
 40
4.5
309
CELLMARGIN_END
 94
        6
 95
        1
302
GRIDFORMAT
  1
GRIDFORMAT_BEGIN
 90
        0
 91
        1
 62
     0
 92
       -2
340
0
 93
        0
 40
1.125
309
GRIDFORMAT_END
 95
        2
302
GRIDFORMAT
  1
GRIDFORMAT_BEGIN
 90
        0
 91
        1
 62
     0
 92
       -2
340
0
 93
        0
 40
1.125
309
GRIDFORMAT_END
 95
        4
302
GRIDFORMAT
  1
GRIDFORMAT_BEGIN
 90
        0
 91
        1
 62
     0
 92
       -2
340
0
 93
        0
 40
1.125
309
GRIDFORMAT_END
 95
        8
302
GRIDFORMAT
  1
GRIDFORMAT_BEGIN
 90
        0
 91
        1
 62
     0
 92
       -2
340
0
 93
        0
 40
1.125
309
GRIDFORMAT_END
 95
       16
302
GRIDFORMAT
  1
GRIDFORMAT_BEGIN
 90
        0
 91
        1
 62
     0
 92
       -2
340
0
 93
        0
 40
1.125
309
GRIDFORMAT_END
 95
       32
302
GRIDFORMAT
  1
GRIDFORMAT_BEGIN
 90
        0
 91
        1
 62
     0
 92
       -2
340
0
 93
        0
 40
1.125
309
GRIDFORMAT_END
309
TABLEFORMAT_END
  1
CELLSTYLE_BEGIN
 90
        2
 91
        1
300
_HEADER
309
CELLSTYLE_END
300
CELLSTYLE
  1
TABLEFORMAT_BEGIN
 90
        5
170
     1
 91
        0
 92
        0
 62
   257
 93
        1
300
CONTENTFORMAT
  1
CONTENTFORMAT_BEGIN
 90
        0
 91
        0
 92
      512
 93
        0
300

 40
0.0
140
1.0
 94
        2
 62
     0
340
F
144
4.5
309
CONTENTFORMAT_END
171
     1
301
MARGIN
  1
CELLMARGIN_BEGIN
 40
1.5
 40
1.5
 40
1.5
 40
1.5
 40
4.5
 40
4.5
309
CELLMARGIN_END
 94
        6
 95
        1
302
GRIDFORMAT
  1
GRIDFORMAT_BEGIN
 90
        0
 91
        1
 62
     0
 92
       -2
340
0
 93
        0
 40
1.125
309
GRIDFORMAT_END
 95
        2
302
GRIDFORMAT
  1
GRIDFORMAT_BEGIN
 90
        0
 91
        1
 62
     0
 92
       -2
340
0
 93
        0
 40
1.125
309
GRIDFORMAT_END
 95
        4
302
GRIDFORMAT
  1
GRIDFORMAT_BEGIN
 90
        0
 91
        1
 62
     0
 92
       -2
340
0
 93
        0
 40
1.125
309
GRIDFORMAT_END
 95
        8
302
GRIDFORMAT
  1
GRIDFORMAT_BEGIN
 90
        0
 91
        1
 62
     0
 92
       -2
340
0
 93
        0
 40
1.125
309
GRIDFORMAT_END
 95
       16
302
GRIDFORMAT
  1
GRIDFORMAT_BEGIN
 90
        0
 91
        1
 62
     0
 92
       -2
340
0
 93
        0
 40
1.125
309
GRIDFORMAT_END
 95
       32
302
GRIDFORMAT
  1
GRIDFORMAT_BEGIN
 90
        0
 91
        1
 62
     0
 92
       -2
340
0
 93
        0
 40
1.125
309
GRIDFORMAT_END
309
TABLEFORMAT_END
  1
CELLSTYLE_BEGIN
 90
        3
 91
        2
300
_DATA
309
CELLSTYLE_END
  0
XRECORD
  5
A71
102
{ACAD_REACTORS
330
6B6
102
}
330
6B6
100
AcDbXrecord
280
     1
102
ACAD_ROUNDTRIP_PRE2007_TABLESTYLE
 90
      512
 91
        0
  1

 92
      512
 93
        0
  2

 94
      512
 95
        0
  3

  0
XRECORD
  5
A56
102
{ACAD_REACTORS
330
A55
102
}
330
A55
100
AcDbXrecord
280
     1
102
RTVSPost2010Prop28
280
     1
102
RTVSPost2010PropOp28
 70
     1
102
RTVSPost2010Prop29
280
     1
102
RTVSPost2010PropOp29
 70
     1
102
RTVSPost2010Prop30
280
     0
102
RTVSPost2010PropOp30
 70
     1
102
RTVSPost2010Prop31
280
     0
102
RTVSPost2010PropOp31
 70
     1
102
RTVSPost2010Prop32
280
     0
102
RTVSPost2010PropOp32
 70
     1
102
RTVSPost2010Prop33
280
     0
102
RTVSPost2010PropOp33
 70
     1
102
RTVSPost2010Prop34
280
     0
102
RTVSPost2010PropOp34
 70
     1
102
RTVSPost2010Prop35
280
     0
102
RTVSPost2010PropOp35
 70
     1
102
RTVSPost2010Prop36
280
     0
102
RTVSPost2010PropOp36
 70
     1
102
RTVSPost2010Prop37
 90
       50
102
RTVSPost2010PropOp37
 70
     1
102
RTVSPost2010Prop38
140
0.0
102
RTVSPost2010PropOp38
 70
     1
102
RTVSPost2010Prop39
140
1.0
102
RTVSPost2010PropOp39
 70
     1
102
RTVSPost2010Prop40
 90
        0
102
RTVSPost2010PropOp40
 70
     1
102
RTVSPost2010Prop41ColorIndex
 90
       18
102
RTVSPost2010Prop41ColorRGB
 90
        0
102
RTVSPost2010PropOp41
 70
     1
102
RTVSPost2010Prop42
 90
       50
102
RTVSPost2010PropOp42
 70
     1
102
RTVSPost2010Prop43
 90
        3
102
RTVSPost2010PropOp43
 70
     1
102
RTVSPost2010Prop44ColorIndex
 90
        5
102
RTVSPost2010Prop44ColorRGB
 90
      255
102
RTVSPost2010PropOp44
 70
     1
102
RTVSPost2010Prop45
280
     0
102
RTVSPost2010PropOp45
 70
     1
102
RTVSPost2010Prop46
 90
       50
102
RTVSPost2010PropOp46
 70
     1
102
RTVSPost2010Prop47
 90
       50
102
RTVSPost2010PropOp47
 70
     1
102
RTVSPost2010Prop48
 90
       50
102
RTVSPost2010PropOp48
 70
     1
102
RTVSPost2010Prop49
280
     0
102
RTVSPost2010PropOp49
 70
     1
102
RTVSPost2010Prop50
 90
       50
102
RTVSPost2010PropOp50
 70
     1
102
RTVSPost2010Prop51ColorIndex
 90
      256
102
RTVSPost2010Prop51ColorRGB
 90
-16777216
102
RTVSPost2010PropOp51
 70
     0
102
RTVSPost2010Prop52
140
1.0
102
RTVSPost2010PropOp52
 70
     0
102
RTVSPost2010Prop53
 90
        2
102
RTVSPost2010PropOp53
 70
     1
102
RTVSPost2010Prop54
  1
strokes_ogs.tif
102
RTVSPost2010PropOp54
 70
     1
102
RTVSPost2010Prop55
280
     0
102
RTVSPost2010PropOp55
 70
     1
102
RTVSPost2010Prop56
140
1.0
102
RTVSPost2010PropOp56
 70
     1
102
RTVSPost2010Prop57
140
1.0
102
RTVSPost2010PropOp57
 70
     1
102
RTVSPropertyOp0
 70
     1
102
RTVSPropertyOp1
 70
     1
102
RTVSPropertyOp2
 70
     1
102
RTVSPropertyOp3
 70
     1
102
RTVSPropertyOp4
 70
     1
102
RTVSPropertyOp5
 70
     1
102
RTVSPropertyOp6
 70
     1
102
RTVSPropertyOp7
 70
     1
102
RTVSPropertyOp8
 70
     1
102
RTVSPropertyOp9
 70
     1
102
RTVSPropertyOp10
 70
     1
102
RTVSPropertyOp11
 70
     1
102
RTVSPropertyOp12
 70
     1
102
RTVSPropertyOp13
 70
     1
102
RTVSPropertyOp14
 70
     1
102
RTVSPropertyOp15
 70
     1
102
RTVSPropertyOp16
 70
     1
102
RTVSPropertyOp17
 70
     1
102
RTVSPropertyOp18
 70
     1
102
RTVSPropertyOp19
 70
     1
102
RTVSPropertyOp20
 70
     1
102
RTVSPropertyOp21
 70
     1
102
RTVSPropertyOp22
 70
     1
102
RTVSPropertyOp23
 70
     1
102
RTVSPropertyOp24
 70
     1
102
RTVSPropertyOp25
 70
     1
102
RTVSPropertyOp26
 70
     1
102
RTVSPropertyOp27
 70
     1
102
RTVSPropertyOp28
 70
     1
102
RTVSPropertyOp29
 70
     1
102
RTVSPropertyOp30
 70
     1
102
RTVSPropertyOp31
 70
     1
102
RTVSPropertyOp32
 70
     1
102
RTVSPropertyOp33
 70
     1
102
RTVSPropertyOp34
 70
     1
102
RTVSPropertyOp35
 70
     1
102
RTVSPropertyOp36
 70
     1
102
RTVSPropertyOp37
 70
     1
102
RTVSPropertyOp38
 70
     1
102
RTVSPropertyOp39
 70
     1
102
RTVSPropertyOp40
 70
     1
102
RTVSPropertyOp41
 70
     1
102
RTVSPropertyOp42
 70
     1
102
RTVSPropertyOp43
 70
     1
102
RTVSPropertyOp44
 70
     1
102
RTVSPropertyOp45
 70
     1
102
RTVSPropertyOp46
 70
     1
102
RTVSPropertyOp47
 70
     1
102
RTVSPropertyOp48
 70
     1
102
RTVSPropertyOp49
 70
     1
102
RTVSPropertyOp50
 70
     1
102
RTVSPropertyOp51
 70
     0
102
RTVSPropertyOp52
 70
     0
102
RTVSPropertyOp53
 70
     1
102
RTVSPropertyOp54
 70
     1
102
RTVSPropertyOp55
 70
     1
102
RTVSPropertyOp56
 70
     1
102
RTVSPropertyOp57
 70
     1
102
RTVSPropertyOp58
 70
     1
102
RTVSPropertyOp59
 70
     1
102
RTVSPropertyOp60
 70
     1
102
RTVSPropertyOp61
 70
     1
102
RTVSPropertyOp62
 70
     1
  0
XRECORD
  5
A5A
102
{ACAD_REACTORS
330
A59
102
}
330
A59
100
AcDbXrecord
280
     1
102
RTVSPost2010Prop28
280
     0
102
RTVSPost2010PropOp28
 70
     1
102
RTVSPost2010Prop29
280
     1
102
RTVSPost2010PropOp29
 70
     1
102
RTVSPost2010Prop30
280
     1
102
RTVSPost2010PropOp30
 70
     1
102
RTVSPost2010Prop31
280
     0
102
RTVSPost2010PropOp31
 70
     1
102
RTVSPost2010Prop32
280
     0
102
RTVSPost2010PropOp32
 70
     1
102
RTVSPost2010Prop33
280
     0
102
RTVSPost2010PropOp33
 70
     1
102
RTVSPost2010Prop34
280
     0
102
RTVSPost2010PropOp34
 70
     1
102
RTVSPost2010Prop35
280
     0
102
RTVSPost2010PropOp35
 70
     1
102
RTVSPost2010Prop36
280
     0
102
RTVSPost2010PropOp36
 70
     1
102
RTVSPost2010Prop37
 90
       50
102
RTVSPost2010PropOp37
 70
     1
102
RTVSPost2010Prop38
140
0.0
102
RTVSPost2010PropOp38
 70
     1
102
RTVSPost2010Prop39
140
1.0
102
RTVSPost2010PropOp39
 70
     1
102
RTVSPost2010Prop40
 90
        0
102
RTVSPost2010PropOp40
 70
     1
102
RTVSPost2010Prop41ColorIndex
 90
       18
102
RTVSPost2010Prop41ColorRGB
 90
        0
102
RTVSPost2010PropOp41
 70
     1
102
RTVSPost2010Prop42
 90
       50
102
RTVSPost2010PropOp42
 70
     1
102
RTVSPost2010Prop43
 90
        3
102
RTVSPost2010PropOp43
 70
     1
102
RTVSPost2010Prop44ColorIndex
 90
        5
102
RTVSPost2010Prop44ColorRGB
 90
      255
102
RTVSPost2010PropOp44
 70
     1
102
RTVSPost2010Prop45
280
     0
102
RTVSPost2010PropOp45
 70
     1
102
RTVSPost2010Prop46
 90
       50
102
RTVSPost2010PropOp46
 70
     1
102
RTVSPost2010Prop47
 90
       50
102
RTVSPost2010PropOp47
 70
     1
102
RTVSPost2010Prop48
 90
       50
102
RTVSPost2010PropOp48
 70
     1
102
RTVSPost2010Prop49
280
     0
102
RTVSPost2010PropOp49
 70
     1
102
RTVSPost2010Prop50
 90
       50
102
RTVSPost2010PropOp50
 70
     1
102
RTVSPost2010Prop51ColorIndex
 90
      256
102
RTVSPost2010Prop51ColorRGB
 90
-16777216
102
RTVSPost2010PropOp51
 70
     0
102
RTVSPost2010Prop52
140
1.0
102
RTVSPost2010PropOp52
 70
     0
102
RTVSPost2010Prop53
 90
        2
102
RTVSPost2010PropOp53
 70
     1
102
RTVSPost2010Prop54
  1
strokes_ogs.tif
102
RTVSPost2010PropOp54
 70
     1
102
RTVSPost2010Prop55
280
     0
102
RTVSPost2010PropOp55
 70
     1
102
RTVSPost2010Prop56
140
1.0
102
RTVSPost2010PropOp56
 70
     1
102
RTVSPost2010Prop57
140
1.0
102
RTVSPost2010PropOp57
 70
     1
102
RTVSPropertyOp0
 70
     1
102
RTVSPropertyOp1
 70
     1
102
RTVSPropertyOp2
 70
     1
102
RTVSPropertyOp3
 70
     1
102
RTVSPropertyOp4
 70
     1
102
RTVSPropertyOp5
 70
     1
102
RTVSPropertyOp6
 70
     1
102
RTVSPropertyOp7
 70
     1
102
RTVSPropertyOp8
 70
     1
102
RTVSPropertyOp9
 70
     1
102
RTVSPropertyOp10
 70
     1
102
RTVSPropertyOp11
 70
     1
102
RTVSPropertyOp12
 70
     1
102
RTVSPropertyOp13
 70
     1
102
RTVSPropertyOp14
 70
     1
102
RTVSPropertyOp15
 70
     1
102
RTVSPropertyOp16
 70
     1
102
RTVSPropertyOp17
 70
     1
102
RTVSPropertyOp18
 70
     1
102
RTVSPropertyOp19
 70
     1
102
RTVSPropertyOp20
 70
     1
102
RTVSPropertyOp21
 70
     1
102
RTVSPropertyOp22
 70
     1
102
RTVSPropertyOp23
 70
     1
102
RTVSPropertyOp24
 70
     1
102
RTVSPropertyOp25
 70
     1
102
RTVSPropertyOp26
 70
     1
102
RTVSPropertyOp27
 70
     1
102
RTVSPropertyOp28
 70
     1
102
RTVSPropertyOp29
 70
     1
102
RTVSPropertyOp30
 70
     1
102
RTVSPropertyOp31
 70
     1
102
RTVSPropertyOp32
 70
     1
102
RTVSPropertyOp33
 70
     1
102
RTVSPropertyOp34
 70
     1
102
RTVSPropertyOp35
 70
     1
102
RTVSPropertyOp36
 70
     1
102
RTVSPropertyOp37
 70
     1
102
RTVSPropertyOp38
 70
     1
102
RTVSPropertyOp39
 70
     1
102
RTVSPropertyOp40
 70
     1
102
RTVSPropertyOp41
 70
     1
102
RTVSPropertyOp42
 70
     1
102
RTVSPropertyOp43
 70
     1
102
RTVSPropertyOp44
 70
     1
102
RTVSPropertyOp45
 70
     1
102
RTVSPropertyOp46
 70
     1
102
RTVSPropertyOp47
 70
     1
102
RTVSPropertyOp48
 70
     1
102
RTVSPropertyOp49
 70
     1
102
RTVSPropertyOp50
 70
     1
102
RTVSPropertyOp51
 70
     0
102
RTVSPropertyOp52
 70
     0
102
RTVSPropertyOp53
 70
     1
102
RTVSPropertyOp54
 70
     1
102
RTVSPropertyOp55
 70
     1
102
RTVSPropertyOp56
 70
     1
102
RTVSPropertyOp57
 70
     1
102
RTVSPropertyOp58
 70
     1
102
RTVSPropertyOp59
 70
     1
102
RTVSPropertyOp60
 70
     1
102
RTVSPropertyOp61
 70
     1
102
RTVSPropertyOp62
 70
     1
  0
XRECORD
  5
A58
102
{ACAD_REACTORS
330
A57
102
}
330
A57
100
AcDbXrecord
280
     1
102
RTVSPost2010Prop28
280
     0
102
RTVSPost2010PropOp28
 70
     1
102
RTVSPost2010Prop29
280
     1
102
RTVSPost2010PropOp29
 70
     1
102
RTVSPost2010Prop30
280
     1
102
RTVSPost2010PropOp30
 70
     1
102
RTVSPost2010Prop31
280
     0
102
RTVSPost2010PropOp31
 70
     1
102
RTVSPost2010Prop32
280
     0
102
RTVSPost2010PropOp32
 70
     1
102
RTVSPost2010Prop33
280
     0
102
RTVSPost2010PropOp33
 70
     1
102
RTVSPost2010Prop34
280
     0
102
RTVSPost2010PropOp34
 70
     1
102
RTVSPost2010Prop35
280
     0
102
RTVSPost2010PropOp35
 70
     1
102
RTVSPost2010Prop36
280
     0
102
RTVSPost2010PropOp36
 70
     1
102
RTVSPost2010Prop37
 90
       50
102
RTVSPost2010PropOp37
 70
     1
102
RTVSPost2010Prop38
140
0.0
102
RTVSPost2010PropOp38
 70
     1
102
RTVSPost2010Prop39
140
1.0
102
RTVSPost2010PropOp39
 70
     1
102
RTVSPost2010Prop40
 90
        0
102
RTVSPost2010PropOp40
 70
     1
102
RTVSPost2010Prop41ColorIndex
 90
       18
102
RTVSPost2010Prop41ColorRGB
 90
        0
102
RTVSPost2010PropOp41
 70
     1
102
RTVSPost2010Prop42
 90
       50
102
RTVSPost2010PropOp42
 70
     1
102
RTVSPost2010Prop43
 90
        3
102
RTVSPost2010PropOp43
 70
     1
102
RTVSPost2010Prop44ColorIndex
 90
        5
102
RTVSPost2010Prop44ColorRGB
 90
      255
102
RTVSPost2010PropOp44
 70
     1
102
RTVSPost2010Prop45
280
     0
102
RTVSPost2010PropOp45
 70
     1
102
RTVSPost2010Prop46
 90
       50
102
RTVSPost2010PropOp46
 70
     1
102
RTVSPost2010Prop47
 90
       50
102
RTVSPost2010PropOp47
 70
     1
102
RTVSPost2010Prop48
 90
       50
102
RTVSPost2010PropOp48
 70
     1
102
RTVSPost2010Prop49
280
     0
102
RTVSPost2010PropOp49
 70
     1
102
RTVSPost2010Prop50
 90
       50
102
RTVSPost2010PropOp50
 70
     1
102
RTVSPost2010Prop51ColorIndex
 90
      256
102
RTVSPost2010Prop51ColorRGB
 90
-16777216
102
RTVSPost2010PropOp51
 70
     0
102
RTVSPost2010Prop52
140
1.0
102
RTVSPost2010PropOp52
 70
     0
102
RTVSPost2010Prop53
 90
        2
102
RTVSPost2010PropOp53
 70
     1
102
RTVSPost2010Prop54
  1
strokes_ogs.tif
102
RTVSPost2010PropOp54
 70
     1
102
RTVSPost2010Prop55
280
     0
102
RTVSPost2010PropOp55
 70
     1
102
RTVSPost2010Prop56
140
1.0
102
RTVSPost2010PropOp56
 70
     1
102
RTVSPost2010Prop57
140
1.0
102
RTVSPost2010PropOp57
 70
     1
102
RTVSPropertyOp0
 70
     1
102
RTVSPropertyOp1
 70
     1
102
RTVSPropertyOp2
 70
     1
102
RTVSPropertyOp3
 70
     1
102
RTVSPropertyOp4
 70
     1
102
RTVSPropertyOp5
 70
     1
102
RTVSPropertyOp6
 70
     1
102
RTVSPropertyOp7
 70
     1
102
RTVSPropertyOp8
 70
     1
102
RTVSPropertyOp9
 70
     1
102
RTVSPropertyOp10
 70
     1
102
RTVSPropertyOp11
 70
     1
102
RTVSPropertyOp12
 70
     1
102
RTVSPropertyOp13
 70
     1
102
RTVSPropertyOp14
 70
     1
102
RTVSPropertyOp15
 70
     1
102
RTVSPropertyOp16
 70
     1
102
RTVSPropertyOp17
 70
     1
102
RTVSPropertyOp18
 70
     1
102
RTVSPropertyOp19
 70
     1
102
RTVSPropertyOp20
 70
     1
102
RTVSPropertyOp21
 70
     1
102
RTVSPropertyOp22
 70
     1
102
RTVSPropertyOp23
 70
     1
102
RTVSPropertyOp24
 70
     1
102
RTVSPropertyOp25
 70
     1
102
RTVSPropertyOp26
 70
     1
102
RTVSPropertyOp27
 70
     1
102
RTVSPropertyOp28
 70
     1
102
RTVSPropertyOp29
 70
     1
102
RTVSPropertyOp30
 70
     1
102
RTVSPropertyOp31
 70
     1
102
RTVSPropertyOp32
 70
     1
102
RTVSPropertyOp33
 70
     1
102
RTVSPropertyOp34
 70
     1
102
RTVSPropertyOp35
 70
     1
102
RTVSPropertyOp36
 70
     1
102
RTVSPropertyOp37
 70
     1
102
RTVSPropertyOp38
 70
     1
102
RTVSPropertyOp39
 70
     1
102
RTVSPropertyOp40
 70
     1
102
RTVSPropertyOp41
 70
     1
102
RTVSPropertyOp42
 70
     1
102
RTVSPropertyOp43
 70
     1
102
RTVSPropertyOp44
 70
     1
102
RTVSPropertyOp45
 70
     1
102
RTVSPropertyOp46
 70
     1
102
RTVSPropertyOp47
 70
     1
102
RTVSPropertyOp48
 70
     1
102
RTVSPropertyOp49
 70
     1
102
RTVSPropertyOp50
 70
     1
102
RTVSPropertyOp51
 70
     0
102
RTVSPropertyOp52
 70
     0
102
RTVSPropertyOp53
 70
     1
102
RTVSPropertyOp54
 70
     1
102
RTVSPropertyOp55
 70
     1
102
RTVSPropertyOp56
 70
     1
102
RTVSPropertyOp57
 70
     1
102
RTVSPropertyOp58
 70
     1
102
RTVSPropertyOp59
 70
     1
102
RTVSPropertyOp60
 70
     1
102
RTVSPropertyOp61
 70
     1
102
RTVSPropertyOp62
 70
     1
  0
XRECORD
  5
A54
102
{ACAD_REACTORS
330
A53
102
}
330
A53
100
AcDbXrecord
280
     1
102
RTVSPost2010Prop28
280
     0
102
RTVSPost2010PropOp28
 70
     1
102
RTVSPost2010Prop29
280
     1
102
RTVSPost2010PropOp29
 70
     1
102
RTVSPost2010Prop30
280
     1
102
RTVSPost2010PropOp30
 70
     1
102
RTVSPost2010Prop31
280
     0
102
RTVSPost2010PropOp31
 70
     1
102
RTVSPost2010Prop32
280
     0
102
RTVSPost2010PropOp32
 70
     1
102
RTVSPost2010Prop33
280
     0
102
RTVSPost2010PropOp33
 70
     1
102
RTVSPost2010Prop34
280
     0
102
RTVSPost2010PropOp34
 70
     1
102
RTVSPost2010Prop35
280
     0
102
RTVSPost2010PropOp35
 70
     1
102
RTVSPost2010Prop36
280
     0
102
RTVSPost2010PropOp36
 70
     1
102
RTVSPost2010Prop37
 90
       50
102
RTVSPost2010PropOp37
 70
     1
102
RTVSPost2010Prop38
140
0.0
102
RTVSPost2010PropOp38
 70
     1
102
RTVSPost2010Prop39
140
1.0
102
RTVSPost2010PropOp39
 70
     1
102
RTVSPost2010Prop40
 90
        0
102
RTVSPost2010PropOp40
 70
     1
102
RTVSPost2010Prop41ColorIndex
 90
       18
102
RTVSPost2010Prop41ColorRGB
 90
        0
102
RTVSPost2010PropOp41
 70
     1
102
RTVSPost2010Prop42
 90
       50
102
RTVSPost2010PropOp42
 70
     1
102
RTVSPost2010Prop43
 90
        3
102
RTVSPost2010PropOp43
 70
     1
102
RTVSPost2010Prop44ColorIndex
 90
        5
102
RTVSPost2010Prop44ColorRGB
 90
      255
102
RTVSPost2010PropOp44
 70
     1
102
RTVSPost2010Prop45
280
     0
102
RTVSPost2010PropOp45
 70
     1
102
RTVSPost2010Prop46
 90
       50
102
RTVSPost2010PropOp46
 70
     1
102
RTVSPost2010Prop47
 90
       50
102
RTVSPost2010PropOp47
 70
     1
102
RTVSPost2010Prop48
 90
       50
102
RTVSPost2010PropOp48
 70
     1
102
RTVSPost2010Prop49
280
     0
102
RTVSPost2010PropOp49
 70
     1
102
RTVSPost2010Prop50
 90
       50
102
RTVSPost2010PropOp50
 70
     1
102
RTVSPost2010Prop51ColorIndex
 90
      256
102
RTVSPost2010Prop51ColorRGB
 90
-16777216
102
RTVSPost2010PropOp51
 70
     0
102
RTVSPost2010Prop52
140
1.0
102
RTVSPost2010PropOp52
 70
     0
102
RTVSPost2010Prop53
 90
        2
102
RTVSPost2010PropOp53
 70
     1
102
RTVSPost2010Prop54
  1
strokes_ogs.tif
102
RTVSPost2010PropOp54
 70
     1
102
RTVSPost2010Prop55
280
     0
102
RTVSPost2010PropOp55
 70
     1
102
RTVSPost2010Prop56
140
1.0
102
RTVSPost2010PropOp56
 70
     1
102
RTVSPost2010Prop57
140
1.0
102
RTVSPost2010PropOp57
 70
     1
102
RTVSPropertyOp0
 70
     1
102
RTVSPropertyOp1
 70
     1
102
RTVSPropertyOp2
 70
     1
102
RTVSPropertyOp3
 70
     1
102
RTVSPropertyOp4
 70
     1
102
RTVSPropertyOp5
 70
     1
102
RTVSPropertyOp6
 70
     1
102
RTVSPropertyOp7
 70
     1
102
RTVSPropertyOp8
 70
     1
102
RTVSPropertyOp9
 70
     1
102
RTVSPropertyOp10
 70
     1
102
RTVSPropertyOp11
 70
     1
102
RTVSPropertyOp12
 70
     1
102
RTVSPropertyOp13
 70
     1
102
RTVSPropertyOp14
 70
     1
102
RTVSPropertyOp15
 70
     1
102
RTVSPropertyOp16
 70
     1
102
RTVSPropertyOp17
 70
     1
102
RTVSPropertyOp18
 70
     1
102
RTVSPropertyOp19
 70
     1
102
RTVSPropertyOp20
 70
     1
102
RTVSPropertyOp21
 70
     1
102
RTVSPropertyOp22
 70
     1
102
RTVSPropertyOp23
 70
     1
102
RTVSPropertyOp24
 70
     1
102
RTVSPropertyOp25
 70
     1
102
RTVSPropertyOp26
 70
     1
102
RTVSPropertyOp27
 70
     1
102
RTVSPropertyOp28
 70
     1
102
RTVSPropertyOp29
 70
     1
102
RTVSPropertyOp30
 70
     1
102
RTVSPropertyOp31
 70
     1
102
RTVSPropertyOp32
 70
     1
102
RTVSPropertyOp33
 70
     1
102
RTVSPropertyOp34
 70
     1
102
RTVSPropertyOp35
 70
     1
102
RTVSPropertyOp36
 70
     1
102
RTVSPropertyOp37
 70
     1
102
RTVSPropertyOp38
 70
     1
102
RTVSPropertyOp39
 70
     1
102
RTVSPropertyOp40
 70
     1
102
RTVSPropertyOp41
 70
     1
102
RTVSPropertyOp42
 70
     1
102
RTVSPropertyOp43
 70
     1
102
RTVSPropertyOp44
 70
     1
102
RTVSPropertyOp45
 70
     1
102
RTVSPropertyOp46
 70
     1
102
RTVSPropertyOp47
 70
     1
102
RTVSPropertyOp48
 70
     1
102
RTVSPropertyOp49
 70
     1
102
RTVSPropertyOp50
 70
     1
102
RTVSPropertyOp51
 70
     0
102
RTVSPropertyOp52
 70
     0
102
RTVSPropertyOp53
 70
     1
102
RTVSPropertyOp54
 70
     1
102
RTVSPropertyOp55
 70
     1
102
RTVSPropertyOp56
 70
     1
102
RTVSPropertyOp57
 70
     1
102
RTVSPropertyOp58
 70
     1
102
RTVSPropertyOp59
 70
     1
102
RTVSPropertyOp60
 70
     1
102
RTVSPropertyOp61
 70
     1
102
RTVSPropertyOp62
 70
     1
  0
XRECORD
  5
A62
102
{ACAD_REACTORS
330
A61
102
}
330
A61
100
AcDbXrecord
280
     1
102
RTVSPost2010Prop28
280
     0
102
RTVSPost2010PropOp28
 70
     1
102
RTVSPost2010Prop29
280
     1
102
RTVSPost2010PropOp29
 70
     1
102
RTVSPost2010Prop30
280
     1
102
RTVSPost2010PropOp30
 70
     1
102
RTVSPost2010Prop31
280
     0
102
RTVSPost2010PropOp31
 70
     1
102
RTVSPost2010Prop32
280
     0
102
RTVSPost2010PropOp32
 70
     1
102
RTVSPost2010Prop33
280
     0
102
RTVSPost2010PropOp33
 70
     1
102
RTVSPost2010Prop34
280
     0
102
RTVSPost2010PropOp34
 70
     1
102
RTVSPost2010Prop35
280
     0
102
RTVSPost2010PropOp35
 70
     1
102
RTVSPost2010Prop36
280
     0
102
RTVSPost2010PropOp36
 70
     1
102
RTVSPost2010Prop37
 90
       50
102
RTVSPost2010PropOp37
 70
     1
102
RTVSPost2010Prop38
140
0.0
102
RTVSPost2010PropOp38
 70
     1
102
RTVSPost2010Prop39
140
1.0
102
RTVSPost2010PropOp39
 70
     1
102
RTVSPost2010Prop40
 90
        0
102
RTVSPost2010PropOp40
 70
     1
102
RTVSPost2010Prop41ColorIndex
 90
       18
102
RTVSPost2010Prop41ColorRGB
 90
        0
102
RTVSPost2010PropOp41
 70
     1
102
RTVSPost2010Prop42
 90
       50
102
RTVSPost2010PropOp42
 70
     1
102
RTVSPost2010Prop43
 90
        3
102
RTVSPost2010PropOp43
 70
     1
102
RTVSPost2010Prop44ColorIndex
 90
        5
102
RTVSPost2010Prop44ColorRGB
 90
      255
102
RTVSPost2010PropOp44
 70
     1
102
RTVSPost2010Prop45
280
     0
102
RTVSPost2010PropOp45
 70
     1
102
RTVSPost2010Prop46
 90
       50
102
RTVSPost2010PropOp46
 70
     1
102
RTVSPost2010Prop47
 90
       50
102
RTVSPost2010PropOp47
 70
     1
102
RTVSPost2010Prop48
 90
       50
102
RTVSPost2010PropOp48
 70
     1
102
RTVSPost2010Prop49
280
     0
102
RTVSPost2010PropOp49
 70
     1
102
RTVSPost2010Prop50
 90
       50
102
RTVSPost2010PropOp50
 70
     1
102
RTVSPost2010Prop51ColorIndex
 90
      256
102
RTVSPost2010Prop51ColorRGB
 90
-16777216
102
RTVSPost2010PropOp51
 70
     0
102
RTVSPost2010Prop52
140
1.0
102
RTVSPost2010PropOp52
 70
     0
102
RTVSPost2010Prop53
 90
        2
102
RTVSPost2010PropOp53
 70
     1
102
RTVSPost2010Prop54
  1
strokes_ogs.tif
102
RTVSPost2010PropOp54
 70
     1
102
RTVSPost2010Prop55
280
     0
102
RTVSPost2010PropOp55
 70
     1
102
RTVSPost2010Prop56
140
1.0
102
RTVSPost2010PropOp56
 70
     1
102
RTVSPost2010Prop57
140
1.0
102
RTVSPost2010PropOp57
 70
     1
102
RTVSPropertyOp0
 70
     1
102
RTVSPropertyOp1
 70
     1
102
RTVSPropertyOp2
 70
     1
102
RTVSPropertyOp3
 70
     1
102
RTVSPropertyOp4
 70
     1
102
RTVSPropertyOp5
 70
     1
102
RTVSPropertyOp6
 70
     1
102
RTVSPropertyOp7
 70
     1
102
RTVSPropertyOp8
 70
     1
102
RTVSPropertyOp9
 70
     1
102
RTVSPropertyOp10
 70
     1
102
RTVSPropertyOp11
 70
     1
102
RTVSPropertyOp12
 70
     1
102
RTVSPropertyOp13
 70
     1
102
RTVSPropertyOp14
 70
     1
102
RTVSPropertyOp15
 70
     1
102
RTVSPropertyOp16
 70
     1
102
RTVSPropertyOp17
 70
     1
102
RTVSPropertyOp18
 70
     1
102
RTVSPropertyOp19
 70
     1
102
RTVSPropertyOp20
 70
     1
102
RTVSPropertyOp21
 70
     1
102
RTVSPropertyOp22
 70
     1
102
RTVSPropertyOp23
 70
     1
102
RTVSPropertyOp24
 70
     1
102
RTVSPropertyOp25
 70
     1
102
RTVSPropertyOp26
 70
     1
102
RTVSPropertyOp27
 70
     1
102
RTVSPropertyOp28
 70
     1
102
RTVSPropertyOp29
 70
     1
102
RTVSPropertyOp30
 70
     1
102
RTVSPropertyOp31
 70
     1
102
RTVSPropertyOp32
 70
     1
102
RTVSPropertyOp33
 70
     1
102
RTVSPropertyOp34
 70
     1
102
RTVSPropertyOp35
 70
     1
102
RTVSPropertyOp36
 70
     1
102
RTVSPropertyOp37
 70
     1
102
RTVSPropertyOp38
 70
     1
102
RTVSPropertyOp39
 70
     1
102
RTVSPropertyOp40
 70
     1
102
RTVSPropertyOp41
 70
     1
102
RTVSPropertyOp42
 70
     1
102
RTVSPropertyOp43
 70
     1
102
RTVSPropertyOp44
 70
     1
102
RTVSPropertyOp45
 70
     1
102
RTVSPropertyOp46
 70
     1
102
RTVSPropertyOp47
 70
     1
102
RTVSPropertyOp48
 70
     1
102
RTVSPropertyOp49
 70
     1
102
RTVSPropertyOp50
 70
     1
102
RTVSPropertyOp51
 70
     0
102
RTVSPropertyOp52
 70
     0
102
RTVSPropertyOp53
 70
     1
102
RTVSPropertyOp54
 70
     1
102
RTVSPropertyOp55
 70
     1
102
RTVSPropertyOp56
 70
     1
102
RTVSPropertyOp57
 70
     1
102
RTVSPropertyOp58
 70
     1
102
RTVSPropertyOp59
 70
     1
102
RTVSPropertyOp60
 70
     1
102
RTVSPropertyOp61
 70
     1
102
RTVSPropertyOp62
 70
     1
  0
XRECORD
  5
A6A
102
{ACAD_REACTORS
330
A69
102
}
330
A69
100
AcDbXrecord
280
     1
102
RTVSPost2010Prop28
280
     0
102
RTVSPost2010PropOp28
 70
     1
102
RTVSPost2010Prop29
280
     1
102
RTVSPost2010PropOp29
 70
     1
102
RTVSPost2010Prop30
280
     1
102
RTVSPost2010PropOp30
 70
     1
102
RTVSPost2010Prop31
280
     0
102
RTVSPost2010PropOp31
 70
     1
102
RTVSPost2010Prop32
280
     0
102
RTVSPost2010PropOp32
 70
     1
102
RTVSPost2010Prop33
280
     0
102
RTVSPost2010PropOp33
 70
     1
102
RTVSPost2010Prop34
280
     0
102
RTVSPost2010PropOp34
 70
     1
102
RTVSPost2010Prop35
280
     0
102
RTVSPost2010PropOp35
 70
     1
102
RTVSPost2010Prop36
280
     0
102
RTVSPost2010PropOp36
 70
     1
102
RTVSPost2010Prop37
 90
       50
102
RTVSPost2010PropOp37
 70
     1
102
RTVSPost2010Prop38
140
0.0
102
RTVSPost2010PropOp38
 70
     1
102
RTVSPost2010Prop39
140
1.0
102
RTVSPost2010PropOp39
 70
     1
102
RTVSPost2010Prop40
 90
        0
102
RTVSPost2010PropOp40
 70
     1
102
RTVSPost2010Prop41ColorIndex
 90
       18
102
RTVSPost2010Prop41ColorRGB
 90
        0
102
RTVSPost2010PropOp41
 70
     1
102
RTVSPost2010Prop42
 90
       50
102
RTVSPost2010PropOp42
 70
     1
102
RTVSPost2010Prop43
 90
        3
102
RTVSPost2010PropOp43
 70
     1
102
RTVSPost2010Prop44ColorIndex
 90
        5
102
RTVSPost2010Prop44ColorRGB
 90
      255
102
RTVSPost2010PropOp44
 70
     1
102
RTVSPost2010Prop45
280
     0
102
RTVSPost2010PropOp45
 70
     1
102
RTVSPost2010Prop46
 90
       50
102
RTVSPost2010PropOp46
 70
     1
102
RTVSPost2010Prop47
 90
       50
102
RTVSPost2010PropOp47
 70
     1
102
RTVSPost2010Prop48
 90
       50
102
RTVSPost2010PropOp48
 70
     1
102
RTVSPost2010Prop49
280
     0
102
RTVSPost2010PropOp49
 70
     1
102
RTVSPost2010Prop50
 90
       50
102
RTVSPost2010PropOp50
 70
     1
102
RTVSPost2010Prop51ColorIndex
 90
      256
102
RTVSPost2010Prop51ColorRGB
 90
-16777216
102
RTVSPost2010PropOp51
 70
     0
102
RTVSPost2010Prop52
140
1.0
102
RTVSPost2010PropOp52
 70
     0
102
RTVSPost2010Prop53
 90
        2
102
RTVSPost2010PropOp53
 70
     1
102
RTVSPost2010Prop54
  1
strokes_ogs.tif
102
RTVSPost2010PropOp54
 70
     1
102
RTVSPost2010Prop55
280
     0
102
RTVSPost2010PropOp55
 70
     1
102
RTVSPost2010Prop56
140
1.0
102
RTVSPost2010PropOp56
 70
     1
102
RTVSPost2010Prop57
140
1.0
102
RTVSPost2010PropOp57
 70
     1
102
RTVSPropertyOp0
 70
     1
102
RTVSPropertyOp1
 70
     1
102
RTVSPropertyOp2
 70
     1
102
RTVSPropertyOp3
 70
     1
102
RTVSPropertyOp4
 70
     1
102
RTVSPropertyOp5
 70
     1
102
RTVSPropertyOp6
 70
     1
102
RTVSPropertyOp7
 70
     1
102
RTVSPropertyOp8
 70
     1
102
RTVSPropertyOp9
 70
     1
102
RTVSPropertyOp10
 70
     1
102
RTVSPropertyOp11
 70
     1
102
RTVSPropertyOp12
 70
     1
102
RTVSPropertyOp13
 70
     1
102
RTVSPropertyOp14
 70
     1
102
RTVSPropertyOp15
 70
     1
102
RTVSPropertyOp16
 70
     1
102
RTVSPropertyOp17
 70
     1
102
RTVSPropertyOp18
 70
     1
102
RTVSPropertyOp19
 70
     1
102
RTVSPropertyOp20
 70
     1
102
RTVSPropertyOp21
 70
     1
102
RTVSPropertyOp22
 70
     1
102
RTVSPropertyOp23
 70
     1
102
RTVSPropertyOp24
 70
     1
102
RTVSPropertyOp25
 70
     1
102
RTVSPropertyOp26
 70
     1
102
RTVSPropertyOp27
 70
     1
102
RTVSPropertyOp28
 70
     1
102
RTVSPropertyOp29
 70
     1
102
RTVSPropertyOp30
 70
     1
102
RTVSPropertyOp31
 70
     1
102
RTVSPropertyOp32
 70
     1
102
RTVSPropertyOp33
 70
     1
102
RTVSPropertyOp34
 70
     1
102
RTVSPropertyOp35
 70
     1
102
RTVSPropertyOp36
 70
     1
102
RTVSPropertyOp37
 70
     1
102
RTVSPropertyOp38
 70
     1
102
RTVSPropertyOp39
 70
     1
102
RTVSPropertyOp40
 70
     1
102
RTVSPropertyOp41
 70
     1
102
RTVSPropertyOp42
 70
     1
102
RTVSPropertyOp43
 70
     1
102
RTVSPropertyOp44
 70
     1
102
RTVSPropertyOp45
 70
     1
102
RTVSPropertyOp46
 70
     1
102
RTVSPropertyOp47
 70
     1
102
RTVSPropertyOp48
 70
     1
102
RTVSPropertyOp49
 70
     1
102
RTVSPropertyOp50
 70
     1
102
RTVSPropertyOp51
 70
     0
102
RTVSPropertyOp52
 70
     0
102
RTVSPropertyOp53
 70
     1
102
RTVSPropertyOp54
 70
     1
102
RTVSPropertyOp55
 70
     1
102
RTVSPropertyOp56
 70
     1
102
RTVSPropertyOp57
 70
     1
102
RTVSPropertyOp58
 70
     1
102
RTVSPropertyOp59
 70
     1
102
RTVSPropertyOp60
 70
     1
102
RTVSPropertyOp61
 70
     1
102
RTVSPropertyOp62
 70
     1
  0
XRECORD
  5
A5C
102
{ACAD_REACTORS
330
A5B
102
}
330
A5B
100
AcDbXrecord
280
     1
102
RTVSPost2010Prop28
280
     0
102
RTVSPost2010PropOp28
 70
     1
102
RTVSPost2010Prop29
280
     1
102
RTVSPost2010PropOp29
 70
     1
102
RTVSPost2010Prop30
280
     1
102
RTVSPost2010PropOp30
 70
     1
102
RTVSPost2010Prop31
280
     0
102
RTVSPost2010PropOp31
 70
     1
102
RTVSPost2010Prop32
280
     0
102
RTVSPost2010PropOp32
 70
     1
102
RTVSPost2010Prop33
280
     0
102
RTVSPost2010PropOp33
 70
     1
102
RTVSPost2010Prop34
280
     0
102
RTVSPost2010PropOp34
 70
     1
102
RTVSPost2010Prop35
280
     0
102
RTVSPost2010PropOp35
 70
     1
102
RTVSPost2010Prop36
280
     0
102
RTVSPost2010PropOp36
 70
     1
102
RTVSPost2010Prop37
 90
       50
102
RTVSPost2010PropOp37
 70
     1
102
RTVSPost2010Prop38
140
0.0
102
RTVSPost2010PropOp38
 70
     1
102
RTVSPost2010Prop39
140
1.0
102
RTVSPost2010PropOp39
 70
     1
102
RTVSPost2010Prop40
 90
        0
102
RTVSPost2010PropOp40
 70
     1
102
RTVSPost2010Prop41ColorIndex
 90
       18
102
RTVSPost2010Prop41ColorRGB
 90
        0
102
RTVSPost2010PropOp41
 70
     1
102
RTVSPost2010Prop42
 90
       50
102
RTVSPost2010PropOp42
 70
     1
102
RTVSPost2010Prop43
 90
        3
102
RTVSPost2010PropOp43
 70
     1
102
RTVSPost2010Prop44ColorIndex
 90
        5
102
RTVSPost2010Prop44ColorRGB
 90
      255
102
RTVSPost2010PropOp44
 70
     1
102
RTVSPost2010Prop45
280
     0
102
RTVSPost2010PropOp45
 70
     1
102
RTVSPost2010Prop46
 90
       50
102
RTVSPost2010PropOp46
 70
     1
102
RTVSPost2010Prop47
 90
       50
102
RTVSPost2010PropOp47
 70
     1
102
RTVSPost2010Prop48
 90
       50
102
RTVSPost2010PropOp48
 70
     1
102
RTVSPost2010Prop49
280
     0
102
RTVSPost2010PropOp49
 70
     1
102
RTVSPost2010Prop50
 90
       50
102
RTVSPost2010PropOp50
 70
     1
102
RTVSPost2010Prop51ColorIndex
 90
      256
102
RTVSPost2010Prop51ColorRGB
 90
-16777216
102
RTVSPost2010PropOp51
 70
     0
102
RTVSPost2010Prop52
140
1.0
102
RTVSPost2010PropOp52
 70
     0
102
RTVSPost2010Prop53
 90
        2
102
RTVSPost2010PropOp53
 70
     1
102
RTVSPost2010Prop54
  1
strokes_ogs.tif
102
RTVSPost2010PropOp54
 70
     1
102
RTVSPost2010Prop55
280
     0
102
RTVSPost2010PropOp55
 70
     1
102
RTVSPost2010Prop56
140
1.0
102
RTVSPost2010PropOp56
 70
     1
102
RTVSPost2010Prop57
140
1.0
102
RTVSPost2010PropOp57
 70
     1
102
RTVSPropertyOp0
 70
     1
102
RTVSPropertyOp1
 70
     1
102
RTVSPropertyOp2
 70
     1
102
RTVSPropertyOp3
 70
     1
102
RTVSPropertyOp4
 70
     1
102
RTVSPropertyOp5
 70
     1
102
RTVSPropertyOp6
 70
     1
102
RTVSPropertyOp7
 70
     1
102
RTVSPropertyOp8
 70
     1
102
RTVSPropertyOp9
 70
     1
102
RTVSPropertyOp10
 70
     1
102
RTVSPropertyOp11
 70
     1
102
RTVSPropertyOp12
 70
     1
102
RTVSPropertyOp13
 70
     1
102
RTVSPropertyOp14
 70
     1
102
RTVSPropertyOp15
 70
     1
102
RTVSPropertyOp16
 70
     1
102
RTVSPropertyOp17
 70
     1
102
RTVSPropertyOp18
 70
     1
102
RTVSPropertyOp19
 70
     1
102
RTVSPropertyOp20
 70
     1
102
RTVSPropertyOp21
 70
     1
102
RTVSPropertyOp22
 70
     1
102
RTVSPropertyOp23
 70
     1
102
RTVSPropertyOp24
 70
     1
102
RTVSPropertyOp25
 70
     1
102
RTVSPropertyOp26
 70
     1
102
RTVSPropertyOp27
 70
     1
102
RTVSPropertyOp28
 70
     1
102
RTVSPropertyOp29
 70
     1
102
RTVSPropertyOp30
 70
     1
102
RTVSPropertyOp31
 70
     1
102
RTVSPropertyOp32
 70
     1
102
RTVSPropertyOp33
 70
     1
102
RTVSPropertyOp34
 70
     1
102
RTVSPropertyOp35
 70
     1
102
RTVSPropertyOp36
 70
     1
102
RTVSPropertyOp37
 70
     1
102
RTVSPropertyOp38
 70
     1
102
RTVSPropertyOp39
 70
     1
102
RTVSPropertyOp40
 70
     1
102
RTVSPropertyOp41
 70
     1
102
RTVSPropertyOp42
 70
     1
102
RTVSPropertyOp43
 70
     1
102
RTVSPropertyOp44
 70
     1
102
RTVSPropertyOp45
 70
     1
102
RTVSPropertyOp46
 70
     1
102
RTVSPropertyOp47
 70
     1
102
RTVSPropertyOp48
 70
     1
102
RTVSPropertyOp49
 70
     1
102
RTVSPropertyOp50
 70
     1
102
RTVSPropertyOp51
 70
     0
102
RTVSPropertyOp52
 70
     0
102
RTVSPropertyOp53
 70
     1
102
RTVSPropertyOp54
 70
     1
102
RTVSPropertyOp55
 70
     1
102
RTVSPropertyOp56
 70
     1
102
RTVSPropertyOp57
 70
     1
102
RTVSPropertyOp58
 70
     1
102
RTVSPropertyOp59
 70
     1
102
RTVSPropertyOp60
 70
     1
102
RTVSPropertyOp61
 70
     1
102
RTVSPropertyOp62
 70
     1
  0
XRECORD
  5
A60
102
{ACAD_REACTORS
330
A5F
102
}
330
A5F
100
AcDbXrecord
280
     1
102
RTVSPost2010Prop28
280
     0
102
RTVSPost2010PropOp28
 70
     1
102
RTVSPost2010Prop29
280
     1
102
RTVSPost2010PropOp29
 70
     1
102
RTVSPost2010Prop30
280
     1
102
RTVSPost2010PropOp30
 70
     1
102
RTVSPost2010Prop31
280
     0
102
RTVSPost2010PropOp31
 70
     1
102
RTVSPost2010Prop32
280
     0
102
RTVSPost2010PropOp32
 70
     1
102
RTVSPost2010Prop33
280
     0
102
RTVSPost2010PropOp33
 70
     1
102
RTVSPost2010Prop34
280
     0
102
RTVSPost2010PropOp34
 70
     1
102
RTVSPost2010Prop35
280
     0
102
RTVSPost2010PropOp35
 70
     1
102
RTVSPost2010Prop36
280
     0
102
RTVSPost2010PropOp36
 70
     1
102
RTVSPost2010Prop37
 90
       50
102
RTVSPost2010PropOp37
 70
     1
102
RTVSPost2010Prop38
140
0.0
102
RTVSPost2010PropOp38
 70
     1
102
RTVSPost2010Prop39
140
1.0
102
RTVSPost2010PropOp39
 70
     1
102
RTVSPost2010Prop40
 90
        0
102
RTVSPost2010PropOp40
 70
     1
102
RTVSPost2010Prop41ColorIndex
 90
       18
102
RTVSPost2010Prop41ColorRGB
 90
        0
102
RTVSPost2010PropOp41
 70
     1
102
RTVSPost2010Prop42
 90
       50
102
RTVSPost2010PropOp42
 70
     1
102
RTVSPost2010Prop43
 90
        3
102
RTVSPost2010PropOp43
 70
     1
102
RTVSPost2010Prop44ColorIndex
 90
        5
102
RTVSPost2010Prop44ColorRGB
 90
      255
102
RTVSPost2010PropOp44
 70
     1
102
RTVSPost2010Prop45
280
     0
102
RTVSPost2010PropOp45
 70
     1
102
RTVSPost2010Prop46
 90
       50
102
RTVSPost2010PropOp46
 70
     1
102
RTVSPost2010Prop47
 90
       50
102
RTVSPost2010PropOp47
 70
     1
102
RTVSPost2010Prop48
 90
       50
102
RTVSPost2010PropOp48
 70
     1
102
RTVSPost2010Prop49
280
     0
102
RTVSPost2010PropOp49
 70
     1
102
RTVSPost2010Prop50
 90
       50
102
RTVSPost2010PropOp50
 70
     1
102
RTVSPost2010Prop51ColorIndex
 90
      256
102
RTVSPost2010Prop51ColorRGB
 90
-16777216
102
RTVSPost2010PropOp51
 70
     0
102
RTVSPost2010Prop52
140
1.0
102
RTVSPost2010PropOp52
 70
     0
102
RTVSPost2010Prop53
 90
        2
102
RTVSPost2010PropOp53
 70
     1
102
RTVSPost2010Prop54
  1
strokes_ogs.tif
102
RTVSPost2010PropOp54
 70
     1
102
RTVSPost2010Prop55
280
     0
102
RTVSPost2010PropOp55
 70
     1
102
RTVSPost2010Prop56
140
1.0
102
RTVSPost2010PropOp56
 70
     1
102
RTVSPost2010Prop57
140
1.0
102
RTVSPost2010PropOp57
 70
     1
102
RTVSPropertyOp0
 70
     1
102
RTVSPropertyOp1
 70
     1
102
RTVSPropertyOp2
 70
     1
102
RTVSPropertyOp3
 70
     1
102
RTVSPropertyOp4
 70
     1
102
RTVSPropertyOp5
 70
     1
102
RTVSPropertyOp6
 70
     1
102
RTVSPropertyOp7
 70
     1
102
RTVSPropertyOp8
 70
     1
102
RTVSPropertyOp9
 70
     1
102
RTVSPropertyOp10
 70
     1
102
RTVSPropertyOp11
 70
     1
102
RTVSPropertyOp12
 70
     1
102
RTVSPropertyOp13
 70
     1
102
RTVSPropertyOp14
 70
     1
102
RTVSPropertyOp15
 70
     1
102
RTVSPropertyOp16
 70
     1
102
RTVSPropertyOp17
 70
     1
102
RTVSPropertyOp18
 70
     1
102
RTVSPropertyOp19
 70
     1
102
RTVSPropertyOp20
 70
     1
102
RTVSPropertyOp21
 70
     1
102
RTVSPropertyOp22
 70
     1
102
RTVSPropertyOp23
 70
     1
102
RTVSPropertyOp24
 70
     1
102
RTVSPropertyOp25
 70
     1
102
RTVSPropertyOp26
 70
     1
102
RTVSPropertyOp27
 70
     1
102
RTVSPropertyOp28
 70
     1
102
RTVSPropertyOp29
 70
     1
102
RTVSPropertyOp30
 70
     1
102
RTVSPropertyOp31
 70
     1
102
RTVSPropertyOp32
 70
     1
102
RTVSPropertyOp33
 70
     1
102
RTVSPropertyOp34
 70
     1
102
RTVSPropertyOp35
 70
     1
102
RTVSPropertyOp36
 70
     1
102
RTVSPropertyOp37
 70
     1
102
RTVSPropertyOp38
 70
     1
102
RTVSPropertyOp39
 70
     1
102
RTVSPropertyOp40
 70
     1
102
RTVSPropertyOp41
 70
     1
102
RTVSPropertyOp42
 70
     1
102
RTVSPropertyOp43
 70
     1
102
RTVSPropertyOp44
 70
     1
102
RTVSPropertyOp45
 70
     1
102
RTVSPropertyOp46
 70
     1
102
RTVSPropertyOp47
 70
     1
102
RTVSPropertyOp48
 70
     1
102
RTVSPropertyOp49
 70
     1
102
RTVSPropertyOp50
 70
     1
102
RTVSPropertyOp51
 70
     0
102
RTVSPropertyOp52
 70
     0
102
RTVSPropertyOp53
 70
     1
102
RTVSPropertyOp54
 70
     1
102
RTVSPropertyOp55
 70
     1
102
RTVSPropertyOp56
 70
     1
102
RTVSPropertyOp57
 70
     1
102
RTVSPropertyOp58
 70
     1
102
RTVSPropertyOp59
 70
     1
102
RTVSPropertyOp60
 70
     1
102
RTVSPropertyOp61
 70
     1
102
RTVSPropertyOp62
 70
     1
  0
XRECORD
  5
A70
102
{ACAD_REACTORS
330
A6F
102
}
330
A6F
100
AcDbXrecord
280
     1
102
RTVSPost2010Prop28
280
     0
102
RTVSPost2010PropOp28
 70
     1
102
RTVSPost2010Prop29
280
     1
102
RTVSPost2010PropOp29
 70
     1
102
RTVSPost2010Prop30
280
     1
102
RTVSPost2010PropOp30
 70
     1
102
RTVSPost2010Prop31
280
     0
102
RTVSPost2010PropOp31
 70
     1
102
RTVSPost2010Prop32
280
     0
102
RTVSPost2010PropOp32
 70
     1
102
RTVSPost2010Prop33
280
     0
102
RTVSPost2010PropOp33
 70
     1
102
RTVSPost2010Prop34
280
     0
102
RTVSPost2010PropOp34
 70
     1
102
RTVSPost2010Prop35
280
     0
102
RTVSPost2010PropOp35
 70
     1
102
RTVSPost2010Prop36
280
     0
102
RTVSPost2010PropOp36
 70
     1
102
RTVSPost2010Prop37
 90
       50
102
RTVSPost2010PropOp37
 70
     1
102
RTVSPost2010Prop38
140
0.0
102
RTVSPost2010PropOp38
 70
     1
102
RTVSPost2010Prop39
140
1.0
102
RTVSPost2010PropOp39
 70
     1
102
RTVSPost2010Prop40
 90
        0
102
RTVSPost2010PropOp40
 70
     1
102
RTVSPost2010Prop41ColorIndex
 90
       18
102
RTVSPost2010Prop41ColorRGB
 90
        0
102
RTVSPost2010PropOp41
 70
     1
102
RTVSPost2010Prop42
 90
       50
102
RTVSPost2010PropOp42
 70
     1
102
RTVSPost2010Prop43
 90
        3
102
RTVSPost2010PropOp43
 70
     1
102
RTVSPost2010Prop44ColorIndex
 90
        5
102
RTVSPost2010Prop44ColorRGB
 90
      255
102
RTVSPost2010PropOp44
 70
     1
102
RTVSPost2010Prop45
280
     0
102
RTVSPost2010PropOp45
 70
     1
102
RTVSPost2010Prop46
 90
       50
102
RTVSPost2010PropOp46
 70
     1
102
RTVSPost2010Prop47
 90
       50
102
RTVSPost2010PropOp47
 70
     1
102
RTVSPost2010Prop48
 90
       50
102
RTVSPost2010PropOp48
 70
     1
102
RTVSPost2010Prop49
280
     0
102
RTVSPost2010PropOp49
 70
     1
102
RTVSPost2010Prop50
 90
       50
102
RTVSPost2010PropOp50
 70
     1
102
RTVSPost2010Prop51ColorIndex
 90
      256
102
RTVSPost2010Prop51ColorRGB
 90
-16777216
102
RTVSPost2010PropOp51
 70
     0
102
RTVSPost2010Prop52
140
1.0
102
RTVSPost2010PropOp52
 70
     0
102
RTVSPost2010Prop53
 90
        2
102
RTVSPost2010PropOp53
 70
     1
102
RTVSPost2010Prop54
  1
strokes_ogs.tif
102
RTVSPost2010PropOp54
 70
     1
102
RTVSPost2010Prop55
280
     0
102
RTVSPost2010PropOp55
 70
     1
102
RTVSPost2010Prop56
140
1.0
102
RTVSPost2010PropOp56
 70
     1
102
RTVSPost2010Prop57
140
1.0
102
RTVSPost2010PropOp57
 70
     1
102
RTVSPropertyOp0
 70
     0
102
RTVSPropertyOp1
 70
     0
102
RTVSPropertyOp2
 70
     0
102
RTVSPropertyOp3
 70
     0
102
RTVSPropertyOp4
 70
     0
102
RTVSPropertyOp5
 70
     0
102
RTVSPropertyOp6
 70
     0
102
RTVSPropertyOp7
 70
     0
102
RTVSPropertyOp8
 70
     0
102
RTVSPropertyOp9
 70
     0
102
RTVSPropertyOp10
 70
     0
102
RTVSPropertyOp11
 70
     0
102
RTVSPropertyOp12
 70
     0
102
RTVSPropertyOp13
 70
     0
102
RTVSPropertyOp14
 70
     2
102
RTVSPropertyOp15
 70
     0
102
RTVSPropertyOp16
 70
     0
102
RTVSPropertyOp17
 70
     0
102
RTVSPropertyOp18
 70
     0
102
RTVSPropertyOp19
 70
     0
102
RTVSPropertyOp20
 70
     0
102
RTVSPropertyOp21
 70
     0
102
RTVSPropertyOp22
 70
     0
102
RTVSPropertyOp23
 70
     0
102
RTVSPropertyOp24
 70
     0
102
RTVSPropertyOp25
 70
     0
102
RTVSPropertyOp26
 70
     0
102
RTVSPropertyOp27
 70
     0
102
RTVSPropertyOp28
 70
     1
102
RTVSPropertyOp29
 70
     1
102
RTVSPropertyOp30
 70
     1
102
RTVSPropertyOp31
 70
     1
102
RTVSPropertyOp32
 70
     1
102
RTVSPropertyOp33
 70
     1
102
RTVSPropertyOp34
 70
     1
102
RTVSPropertyOp35
 70
     1
102
RTVSPropertyOp36
 70
     1
102
RTVSPropertyOp37
 70
     1
102
RTVSPropertyOp38
 70
     1
102
RTVSPropertyOp39
 70
     1
102
RTVSPropertyOp40
 70
     1
102
RTVSPropertyOp41
 70
     1
102
RTVSPropertyOp42
 70
     1
102
RTVSPropertyOp43
 70
     1
102
RTVSPropertyOp44
 70
     1
102
RTVSPropertyOp45
 70
     1
102
RTVSPropertyOp46
 70
     1
102
RTVSPropertyOp47
 70
     1
102
RTVSPropertyOp48
 70
     1
102
RTVSPropertyOp49
 70
     1
102
RTVSPropertyOp50
 70
     1
102
RTVSPropertyOp51
 70
     0
102
RTVSPropertyOp52
 70
     0
102
RTVSPropertyOp53
 70
     1
102
RTVSPropertyOp54
 70
     1
102
RTVSPropertyOp55
 70
     1
102
RTVSPropertyOp56
 70
     1
102
RTVSPropertyOp57
 70
     1
102
RTVSPropertyOp58
 70
     1
102
RTVSPropertyOp59
 70
     1
102
RTVSPropertyOp60
 70
     1
102
RTVSPropertyOp61
 70
     1
102
RTVSPropertyOp62
 70
     1
  0
XRECORD
  5
A68
102
{ACAD_REACTORS
330
A67
102
}
330
A67
100
AcDbXrecord
280
     1
102
RTVSPost2010Prop28
280
     0
102
RTVSPost2010PropOp28
 70
     1
102
RTVSPost2010Prop29
280
     1
102
RTVSPost2010PropOp29
 70
     1
102
RTVSPost2010Prop30
280
     1
102
RTVSPost2010PropOp30
 70
     1
102
RTVSPost2010Prop31
280
     0
102
RTVSPost2010PropOp31
 70
     1
102
RTVSPost2010Prop32
280
     0
102
RTVSPost2010PropOp32
 70
     1
102
RTVSPost2010Prop33
280
     0
102
RTVSPost2010PropOp33
 70
     1
102
RTVSPost2010Prop34
280
     0
102
RTVSPost2010PropOp34
 70
     1
102
RTVSPost2010Prop35
280
     0
102
RTVSPost2010PropOp35
 70
     1
102
RTVSPost2010Prop36
280
     0
102
RTVSPost2010PropOp36
 70
     1
102
RTVSPost2010Prop37
 90
       50
102
RTVSPost2010PropOp37
 70
     1
102
RTVSPost2010Prop38
140
0.0
102
RTVSPost2010PropOp38
 70
     1
102
RTVSPost2010Prop39
140
1.0
102
RTVSPost2010PropOp39
 70
     1
102
RTVSPost2010Prop40
 90
        0
102
RTVSPost2010PropOp40
 70
     1
102
RTVSPost2010Prop41ColorIndex
 90
       18
102
RTVSPost2010Prop41ColorRGB
 90
        0
102
RTVSPost2010PropOp41
 70
     1
102
RTVSPost2010Prop42
 90
       50
102
RTVSPost2010PropOp42
 70
     1
102
RTVSPost2010Prop43
 90
        3
102
RTVSPost2010PropOp43
 70
     1
102
RTVSPost2010Prop44ColorIndex
 90
        5
102
RTVSPost2010Prop44ColorRGB
 90
      255
102
RTVSPost2010PropOp44
 70
     1
102
RTVSPost2010Prop45
280
     0
102
RTVSPost2010PropOp45
 70
     1
102
RTVSPost2010Prop46
 90
       50
102
RTVSPost2010PropOp46
 70
     1
102
RTVSPost2010Prop47
 90
       50
102
RTVSPost2010PropOp47
 70
     1
102
RTVSPost2010Prop48
 90
       50
102
RTVSPost2010PropOp48
 70
     1
102
RTVSPost2010Prop49
280
     0
102
RTVSPost2010PropOp49
 70
     1
102
RTVSPost2010Prop50
 90
       50
102
RTVSPost2010PropOp50
 70
     1
102
RTVSPost2010Prop51ColorIndex
 90
      256
102
RTVSPost2010Prop51ColorRGB
 90
-16777216
102
RTVSPost2010PropOp51
 70
     0
102
RTVSPost2010Prop52
140
1.0
102
RTVSPost2010PropOp52
 70
     0
102
RTVSPost2010Prop53
 90
        2
102
RTVSPost2010PropOp53
 70
     1
102
RTVSPost2010Prop54
  1
strokes_ogs.tif
102
RTVSPost2010PropOp54
 70
     1
102
RTVSPost2010Prop55
280
     0
102
RTVSPost2010PropOp55
 70
     1
102
RTVSPost2010Prop56
140
1.0
102
RTVSPost2010PropOp56
 70
     1
102
RTVSPost2010Prop57
140
1.0
102
RTVSPost2010PropOp57
 70
     1
102
RTVSPropertyOp0
 70
     1
102
RTVSPropertyOp1
 70
     1
102
RTVSPropertyOp2
 70
     1
102
RTVSPropertyOp3
 70
     1
102
RTVSPropertyOp4
 70
     1
102
RTVSPropertyOp5
 70
     1
102
RTVSPropertyOp6
 70
     1
102
RTVSPropertyOp7
 70
     1
102
RTVSPropertyOp8
 70
     1
102
RTVSPropertyOp9
 70
     1
102
RTVSPropertyOp10
 70
     1
102
RTVSPropertyOp11
 70
     1
102
RTVSPropertyOp12
 70
     1
102
RTVSPropertyOp13
 70
     1
102
RTVSPropertyOp14
 70
     1
102
RTVSPropertyOp15
 70
     1
102
RTVSPropertyOp16
 70
     1
102
RTVSPropertyOp17
 70
     1
102
RTVSPropertyOp18
 70
     1
102
RTVSPropertyOp19
 70
     1
102
RTVSPropertyOp20
 70
     1
102
RTVSPropertyOp21
 70
     1
102
RTVSPropertyOp22
 70
     1
102
RTVSPropertyOp23
 70
     1
102
RTVSPropertyOp24
 70
     1
102
RTVSPropertyOp25
 70
     1
102
RTVSPropertyOp26
 70
     1
102
RTVSPropertyOp27
 70
     1
102
RTVSPropertyOp28
 70
     1
102
RTVSPropertyOp29
 70
     1
102
RTVSPropertyOp30
 70
     1
102
RTVSPropertyOp31
 70
     1
102
RTVSPropertyOp32
 70
     1
102
RTVSPropertyOp33
 70
     1
102
RTVSPropertyOp34
 70
     1
102
RTVSPropertyOp35
 70
     1
102
RTVSPropertyOp36
 70
     1
102
RTVSPropertyOp37
 70
     1
102
RTVSPropertyOp38
 70
     1
102
RTVSPropertyOp39
 70
     1
102
RTVSPropertyOp40
 70
     1
102
RTVSPropertyOp41
 70
     1
102
RTVSPropertyOp42
 70
     1
102
RTVSPropertyOp43
 70
     1
102
RTVSPropertyOp44
 70
     1
102
RTVSPropertyOp45
 70
     1
102
RTVSPropertyOp46
 70
     1
102
RTVSPropertyOp47
 70
     1
102
RTVSPropertyOp48
 70
     1
102
RTVSPropertyOp49
 70
     1
102
RTVSPropertyOp50
 70
     1
102
RTVSPropertyOp51
 70
     0
102
RTVSPropertyOp52
 70
     0
102
RTVSPropertyOp53
 70
     1
102
RTVSPropertyOp54
 70
     1
102
RTVSPropertyOp55
 70
     1
102
RTVSPropertyOp56
 70
     1
102
RTVSPropertyOp57
 70
     1
102
RTVSPropertyOp58
 70
     1
102
RTVSPropertyOp59
 70
     1
102
RTVSPropertyOp60
 70
     1
102
RTVSPropertyOp61
 70
     1
102
RTVSPropertyOp62
 70
     1
  0
XRECORD
  5
A4C
102
{ACAD_REACTORS
330
A4B
102
}
330
A4B
100
AcDbXrecord
280
     1
102
RTVSPost2010Prop28
280
     0
102
RTVSPost2010PropOp28
 70
     1
102
RTVSPost2010Prop29
280
     1
102
RTVSPost2010PropOp29
 70
     1
102
RTVSPost2010Prop30
280
     1
102
RTVSPost2010PropOp30
 70
     1
102
RTVSPost2010Prop31
280
     0
102
RTVSPost2010PropOp31
 70
     1
102
RTVSPost2010Prop32
280
     0
102
RTVSPost2010PropOp32
 70
     1
102
RTVSPost2010Prop33
280
     0
102
RTVSPost2010PropOp33
 70
     1
102
RTVSPost2010Prop34
280
     0
102
RTVSPost2010PropOp34
 70
     1
102
RTVSPost2010Prop35
280
     0
102
RTVSPost2010PropOp35
 70
     1
102
RTVSPost2010Prop36
280
     0
102
RTVSPost2010PropOp36
 70
     1
102
RTVSPost2010Prop37
 90
       50
102
RTVSPost2010PropOp37
 70
     1
102
RTVSPost2010Prop38
140
0.0
102
RTVSPost2010PropOp38
 70
     1
102
RTVSPost2010Prop39
140
1.0
102
RTVSPost2010PropOp39
 70
     1
102
RTVSPost2010Prop40
 90
        0
102
RTVSPost2010PropOp40
 70
     1
102
RTVSPost2010Prop41ColorIndex
 90
       18
102
RTVSPost2010Prop41ColorRGB
 90
        0
102
RTVSPost2010PropOp41
 70
     1
102
RTVSPost2010Prop42
 90
       50
102
RTVSPost2010PropOp42
 70
     1
102
RTVSPost2010Prop43
 90
        3
102
RTVSPost2010PropOp43
 70
     1
102
RTVSPost2010Prop44ColorIndex
 90
        5
102
RTVSPost2010Prop44ColorRGB
 90
      255
102
RTVSPost2010PropOp44
 70
     1
102
RTVSPost2010Prop45
280
     0
102
RTVSPost2010PropOp45
 70
     1
102
RTVSPost2010Prop46
 90
       50
102
RTVSPost2010PropOp46
 70
     1
102
RTVSPost2010Prop47
 90
       50
102
RTVSPost2010PropOp47
 70
     1
102
RTVSPost2010Prop48
 90
       50
102
RTVSPost2010PropOp48
 70
     1
102
RTVSPost2010Prop49
280
     0
102
RTVSPost2010PropOp49
 70
     1
102
RTVSPost2010Prop50
 90
       50
102
RTVSPost2010PropOp50
 70
     1
102
RTVSPost2010Prop51ColorIndex
 90
      256
102
RTVSPost2010Prop51ColorRGB
 90
-16777216
102
RTVSPost2010PropOp51
 70
     0
102
RTVSPost2010Prop52
140
1.0
102
RTVSPost2010PropOp52
 70
     0
102
RTVSPost2010Prop53
 90
        2
102
RTVSPost2010PropOp53
 70
     1
102
RTVSPost2010Prop54
  1
strokes_ogs.tif
102
RTVSPost2010PropOp54
 70
     1
102
RTVSPost2010Prop55
280
     0
102
RTVSPost2010PropOp55
 70
     1
102
RTVSPost2010Prop56
140
1.0
102
RTVSPost2010PropOp56
 70
     1
102
RTVSPost2010Prop57
140
1.0
102
RTVSPost2010PropOp57
 70
     1
102
RTVSPropertyOp0
 70
     1
102
RTVSPropertyOp1
 70
     1
102
RTVSPropertyOp2
 70
     1
102
RTVSPropertyOp3
 70
     1
102
RTVSPropertyOp4
 70
     1
102
RTVSPropertyOp5
 70
     1
102
RTVSPropertyOp6
 70
     1
102
RTVSPropertyOp7
 70
     1
102
RTVSPropertyOp8
 70
     1
102
RTVSPropertyOp9
 70
     1
102
RTVSPropertyOp10
 70
     1
102
RTVSPropertyOp11
 70
     1
102
RTVSPropertyOp12
 70
     1
102
RTVSPropertyOp13
 70
     1
102
RTVSPropertyOp14
 70
     1
102
RTVSPropertyOp15
 70
     1
102
RTVSPropertyOp16
 70
     1
102
RTVSPropertyOp17
 70
     1
102
RTVSPropertyOp18
 70
     1
102
RTVSPropertyOp19
 70
     1
102
RTVSPropertyOp20
 70
     1
102
RTVSPropertyOp21
 70
     1
102
RTVSPropertyOp22
 70
     1
102
RTVSPropertyOp23
 70
     1
102
RTVSPropertyOp24
 70
     1
102
RTVSPropertyOp25
 70
     1
102
RTVSPropertyOp26
 70
     1
102
RTVSPropertyOp27
 70
     1
102
RTVSPropertyOp28
 70
     1
102
RTVSPropertyOp29
 70
     1
102
RTVSPropertyOp30
 70
     1
102
RTVSPropertyOp31
 70
     1
102
RTVSPropertyOp32
 70
     1
102
RTVSPropertyOp33
 70
     1
102
RTVSPropertyOp34
 70
     1
102
RTVSPropertyOp35
 70
     1
102
RTVSPropertyOp36
 70
     1
102
RTVSPropertyOp37
 70
     1
102
RTVSPropertyOp38
 70
     1
102
RTVSPropertyOp39
 70
     1
102
RTVSPropertyOp40
 70
     1
102
RTVSPropertyOp41
 70
     1
102
RTVSPropertyOp42
 70
     1
102
RTVSPropertyOp43
 70
     1
102
RTVSPropertyOp44
 70
     1
102
RTVSPropertyOp45
 70
     1
102
RTVSPropertyOp46
 70
     1
102
RTVSPropertyOp47
 70
     1
102
RTVSPropertyOp48
 70
     1
102
RTVSPropertyOp49
 70
     1
102
RTVSPropertyOp50
 70
     1
102
RTVSPropertyOp51
 70
     0
102
RTVSPropertyOp52
 70
     0
102
RTVSPropertyOp53
 70
     1
102
RTVSPropertyOp54
 70
     1
102
RTVSPropertyOp55
 70
     1
102
RTVSPropertyOp56
 70
     1
102
RTVSPropertyOp57
 70
     1
102
RTVSPropertyOp58
 70
     1
102
RTVSPropertyOp59
 70
     1
102
RTVSPropertyOp60
 70
     1
102
RTVSPropertyOp61
 70
     1
102
RTVSPropertyOp62
 70
     1
  0
XRECORD
  5
A4E
102
{ACAD_REACTORS
330
A4D
102
}
330
A4D
100
AcDbXrecord
280
     1
102
RTVSPost2010Prop28
280
     0
102
RTVSPost2010PropOp28
 70
     1
102
RTVSPost2010Prop29
280
     1
102
RTVSPost2010PropOp29
 70
     1
102
RTVSPost2010Prop30
280
     1
102
RTVSPost2010PropOp30
 70
     1
102
RTVSPost2010Prop31
280
     0
102
RTVSPost2010PropOp31
 70
     1
102
RTVSPost2010Prop32
280
     0
102
RTVSPost2010PropOp32
 70
     1
102
RTVSPost2010Prop33
280
     0
102
RTVSPost2010PropOp33
 70
     1
102
RTVSPost2010Prop34
280
     0
102
RTVSPost2010PropOp34
 70
     1
102
RTVSPost2010Prop35
280
     0
102
RTVSPost2010PropOp35
 70
     1
102
RTVSPost2010Prop36
280
     0
102
RTVSPost2010PropOp36
 70
     1
102
RTVSPost2010Prop37
 90
       50
102
RTVSPost2010PropOp37
 70
     1
102
RTVSPost2010Prop38
140
0.0
102
RTVSPost2010PropOp38
 70
     1
102
RTVSPost2010Prop39
140
1.0
102
RTVSPost2010PropOp39
 70
     1
102
RTVSPost2010Prop40
 90
        0
102
RTVSPost2010PropOp40
 70
     1
102
RTVSPost2010Prop41ColorIndex
 90
       18
102
RTVSPost2010Prop41ColorRGB
 90
        0
102
RTVSPost2010PropOp41
 70
     1
102
RTVSPost2010Prop42
 90
       50
102
RTVSPost2010PropOp42
 70
     1
102
RTVSPost2010Prop43
 90
        3
102
RTVSPost2010PropOp43
 70
     1
102
RTVSPost2010Prop44ColorIndex
 90
        5
102
RTVSPost2010Prop44ColorRGB
 90
      255
102
RTVSPost2010PropOp44
 70
     1
102
RTVSPost2010Prop45
280
     0
102
RTVSPost2010PropOp45
 70
     1
102
RTVSPost2010Prop46
 90
       50
102
RTVSPost2010PropOp46
 70
     1
102
RTVSPost2010Prop47
 90
       50
102
RTVSPost2010PropOp47
 70
     1
102
RTVSPost2010Prop48
 90
       50
102
RTVSPost2010PropOp48
 70
     1
102
RTVSPost2010Prop49
280
     0
102
RTVSPost2010PropOp49
 70
     1
102
RTVSPost2010Prop50
 90
       50
102
RTVSPost2010PropOp50
 70
     1
102
RTVSPost2010Prop51ColorIndex
 90
      256
102
RTVSPost2010Prop51ColorRGB
 90
-16777216
102
RTVSPost2010PropOp51
 70
     0
102
RTVSPost2010Prop52
140
1.0
102
RTVSPost2010PropOp52
 70
     0
102
RTVSPost2010Prop53
 90
        2
102
RTVSPost2010PropOp53
 70
     1
102
RTVSPost2010Prop54
  1
strokes_ogs.tif
102
RTVSPost2010PropOp54
 70
     1
102
RTVSPost2010Prop55
280
     0
102
RTVSPost2010PropOp55
 70
     1
102
RTVSPost2010Prop56
140
1.0
102
RTVSPost2010PropOp56
 70
     1
102
RTVSPost2010Prop57
140
1.0
102
RTVSPost2010PropOp57
 70
     1
102
RTVSPropertyOp0
 70
     1
102
RTVSPropertyOp1
 70
     1
102
RTVSPropertyOp2
 70
     1
102
RTVSPropertyOp3
 70
     1
102
RTVSPropertyOp4
 70
     1
102
RTVSPropertyOp5
 70
     1
102
RTVSPropertyOp6
 70
     1
102
RTVSPropertyOp7
 70
     1
102
RTVSPropertyOp8
 70
     1
102
RTVSPropertyOp9
 70
     1
102
RTVSPropertyOp10
 70
     1
102
RTVSPropertyOp11
 70
     1
102
RTVSPropertyOp12
 70
     1
102
RTVSPropertyOp13
 70
     1
102
RTVSPropertyOp14
 70
     1
102
RTVSPropertyOp15
 70
     1
102
RTVSPropertyOp16
 70
     1
102
RTVSPropertyOp17
 70
     1
102
RTVSPropertyOp18
 70
     1
102
RTVSPropertyOp19
 70
     1
102
RTVSPropertyOp20
 70
     1
102
RTVSPropertyOp21
 70
     1
102
RTVSPropertyOp22
 70
     1
102
RTVSPropertyOp23
 70
     1
102
RTVSPropertyOp24
 70
     1
102
RTVSPropertyOp25
 70
     1
102
RTVSPropertyOp26
 70
     1
102
RTVSPropertyOp27
 70
     1
102
RTVSPropertyOp28
 70
     1
102
RTVSPropertyOp29
 70
     1
102
RTVSPropertyOp30
 70
     1
102
RTVSPropertyOp31
 70
     1
102
RTVSPropertyOp32
 70
     1
102
RTVSPropertyOp33
 70
     1
102
RTVSPropertyOp34
 70
     1
102
RTVSPropertyOp35
 70
     1
102
RTVSPropertyOp36
 70
     1
102
RTVSPropertyOp37
 70
     1
102
RTVSPropertyOp38
 70
     1
102
RTVSPropertyOp39
 70
     1
102
RTVSPropertyOp40
 70
     1
102
RTVSPropertyOp41
 70
     1
102
RTVSPropertyOp42
 70
     1
102
RTVSPropertyOp43
 70
     1
102
RTVSPropertyOp44
 70
     1
102
RTVSPropertyOp45
 70
     1
102
RTVSPropertyOp46
 70
     1
102
RTVSPropertyOp47
 70
     1
102
RTVSPropertyOp48
 70
     1
102
RTVSPropertyOp49
 70
     1
102
RTVSPropertyOp50
 70
     1
102
RTVSPropertyOp51
 70
     0
102
RTVSPropertyOp52
 70
     0
102
RTVSPropertyOp53
 70
     1
102
RTVSPropertyOp54
 70
     1
102
RTVSPropertyOp55
 70
     1
102
RTVSPropertyOp56
 70
     1
102
RTVSPropertyOp57
 70
     1
102
RTVSPropertyOp58
 70
     1
102
RTVSPropertyOp59
 70
     1
102
RTVSPropertyOp60
 70
     1
102
RTVSPropertyOp61
 70
     1
102
RTVSPropertyOp62
 70
     1
  0
XRECORD
  5
A50
102
{ACAD_REACTORS
330
A4F
102
}
330
A4F
100
AcDbXrecord
280
     1
102
RTVSPost2010Prop28
280
     0
102
RTVSPost2010PropOp28
 70
     1
102
RTVSPost2010Prop29
280
     1
102
RTVSPost2010PropOp29
 70
     1
102
RTVSPost2010Prop30
280
     1
102
RTVSPost2010PropOp30
 70
     1
102
RTVSPost2010Prop31
280
     0
102
RTVSPost2010PropOp31
 70
     1
102
RTVSPost2010Prop32
280
     0
102
RTVSPost2010PropOp32
 70
     1
102
RTVSPost2010Prop33
280
     0
102
RTVSPost2010PropOp33
 70
     1
102
RTVSPost2010Prop34
280
     0
102
RTVSPost2010PropOp34
 70
     1
102
RTVSPost2010Prop35
280
     0
102
RTVSPost2010PropOp35
 70
     1
102
RTVSPost2010Prop36
280
     0
102
RTVSPost2010PropOp36
 70
     1
102
RTVSPost2010Prop37
 90
       50
102
RTVSPost2010PropOp37
 70
     1
102
RTVSPost2010Prop38
140
0.0
102
RTVSPost2010PropOp38
 70
     1
102
RTVSPost2010Prop39
140
1.0
102
RTVSPost2010PropOp39
 70
     1
102
RTVSPost2010Prop40
 90
        0
102
RTVSPost2010PropOp40
 70
     1
102
RTVSPost2010Prop41ColorIndex
 90
       18
102
RTVSPost2010Prop41ColorRGB
 90
        0
102
RTVSPost2010PropOp41
 70
     1
102
RTVSPost2010Prop42
 90
       50
102
RTVSPost2010PropOp42
 70
     1
102
RTVSPost2010Prop43
 90
        3
102
RTVSPost2010PropOp43
 70
     1
102
RTVSPost2010Prop44ColorIndex
 90
        5
102
RTVSPost2010Prop44ColorRGB
 90
      255
102
RTVSPost2010PropOp44
 70
     1
102
RTVSPost2010Prop45
280
     0
102
RTVSPost2010PropOp45
 70
     1
102
RTVSPost2010Prop46
 90
       50
102
RTVSPost2010PropOp46
 70
     1
102
RTVSPost2010Prop47
 90
       50
102
RTVSPost2010PropOp47
 70
     1
102
RTVSPost2010Prop48
 90
       50
102
RTVSPost2010PropOp48
 70
     1
102
RTVSPost2010Prop49
280
     0
102
RTVSPost2010PropOp49
 70
     1
102
RTVSPost2010Prop50
 90
       50
102
RTVSPost2010PropOp50
 70
     1
102
RTVSPost2010Prop51ColorIndex
 90
      256
102
RTVSPost2010Prop51ColorRGB
 90
-16777216
102
RTVSPost2010PropOp51
 70
     0
102
RTVSPost2010Prop52
140
1.0
102
RTVSPost2010PropOp52
 70
     0
102
RTVSPost2010Prop53
 90
        2
102
RTVSPost2010PropOp53
 70
     1
102
RTVSPost2010Prop54
  1
strokes_ogs.tif
102
RTVSPost2010PropOp54
 70
     1
102
RTVSPost2010Prop55
280
     0
102
RTVSPost2010PropOp55
 70
     1
102
RTVSPost2010Prop56
140
1.0
102
RTVSPost2010PropOp56
 70
     1
102
RTVSPost2010Prop57
140
1.0
102
RTVSPost2010PropOp57
 70
     1
102
RTVSPropertyOp0
 70
     1
102
RTVSPropertyOp1
 70
     1
102
RTVSPropertyOp2
 70
     1
102
RTVSPropertyOp3
 70
     1
102
RTVSPropertyOp4
 70
     1
102
RTVSPropertyOp5
 70
     1
102
RTVSPropertyOp6
 70
     1
102
RTVSPropertyOp7
 70
     1
102
RTVSPropertyOp8
 70
     1
102
RTVSPropertyOp9
 70
     1
102
RTVSPropertyOp10
 70
     1
102
RTVSPropertyOp11
 70
     1
102
RTVSPropertyOp12
 70
     1
102
RTVSPropertyOp13
 70
     1
102
RTVSPropertyOp14
 70
     1
102
RTVSPropertyOp15
 70
     1
102
RTVSPropertyOp16
 70
     1
102
RTVSPropertyOp17
 70
     1
102
RTVSPropertyOp18
 70
     1
102
RTVSPropertyOp19
 70
     1
102
RTVSPropertyOp20
 70
     1
102
RTVSPropertyOp21
 70
     1
102
RTVSPropertyOp22
 70
     1
102
RTVSPropertyOp23
 70
     1
102
RTVSPropertyOp24
 70
     1
102
RTVSPropertyOp25
 70
     1
102
RTVSPropertyOp26
 70
     1
102
RTVSPropertyOp27
 70
     1
102
RTVSPropertyOp28
 70
     1
102
RTVSPropertyOp29
 70
     1
102
RTVSPropertyOp30
 70
     1
102
RTVSPropertyOp31
 70
     1
102
RTVSPropertyOp32
 70
     1
102
RTVSPropertyOp33
 70
     1
102
RTVSPropertyOp34
 70
     1
102
RTVSPropertyOp35
 70
     1
102
RTVSPropertyOp36
 70
     1
102
RTVSPropertyOp37
 70
     1
102
RTVSPropertyOp38
 70
     1
102
RTVSPropertyOp39
 70
     1
102
RTVSPropertyOp40
 70
     1
102
RTVSPropertyOp41
 70
     1
102
RTVSPropertyOp42
 70
     1
102
RTVSPropertyOp43
 70
     1
102
RTVSPropertyOp44
 70
     1
102
RTVSPropertyOp45
 70
     1
102
RTVSPropertyOp46
 70
     1
102
RTVSPropertyOp47
 70
     1
102
RTVSPropertyOp48
 70
     1
102
RTVSPropertyOp49
 70
     1
102
RTVSPropertyOp50
 70
     1
102
RTVSPropertyOp51
 70
     0
102
RTVSPropertyOp52
 70
     0
102
RTVSPropertyOp53
 70
     1
102
RTVSPropertyOp54
 70
     1
102
RTVSPropertyOp55
 70
     1
102
RTVSPropertyOp56
 70
     1
102
RTVSPropertyOp57
 70
     1
102
RTVSPropertyOp58
 70
     1
102
RTVSPropertyOp59
 70
     1
102
RTVSPropertyOp60
 70
     1
102
RTVSPropertyOp61
 70
     1
102
RTVSPropertyOp62
 70
     1
  0
XRECORD
  5
A52
102
{ACAD_REACTORS
330
A51
102
}
330
A51
100
AcDbXrecord
280
     1
102
RTVSPost2010Prop28
280
     0
102
RTVSPost2010PropOp28
 70
     1
102
RTVSPost2010Prop29
280
     1
102
RTVSPost2010PropOp29
 70
     1
102
RTVSPost2010Prop30
280
     1
102
RTVSPost2010PropOp30
 70
     1
102
RTVSPost2010Prop31
280
     0
102
RTVSPost2010PropOp31
 70
     1
102
RTVSPost2010Prop32
280
     0
102
RTVSPost2010PropOp32
 70
     1
102
RTVSPost2010Prop33
280
     0
102
RTVSPost2010PropOp33
 70
     1
102
RTVSPost2010Prop34
280
     0
102
RTVSPost2010PropOp34
 70
     1
102
RTVSPost2010Prop35
280
     0
102
RTVSPost2010PropOp35
 70
     1
102
RTVSPost2010Prop36
280
     0
102
RTVSPost2010PropOp36
 70
     1
102
RTVSPost2010Prop37
 90
       50
102
RTVSPost2010PropOp37
 70
     1
102
RTVSPost2010Prop38
140
0.0
102
RTVSPost2010PropOp38
 70
     1
102
RTVSPost2010Prop39
140
1.0
102
RTVSPost2010PropOp39
 70
     1
102
RTVSPost2010Prop40
 90
        0
102
RTVSPost2010PropOp40
 70
     1
102
RTVSPost2010Prop41ColorIndex
 90
       18
102
RTVSPost2010Prop41ColorRGB
 90
        0
102
RTVSPost2010PropOp41
 70
     1
102
RTVSPost2010Prop42
 90
       50
102
RTVSPost2010PropOp42
 70
     1
102
RTVSPost2010Prop43
 90
        3
102
RTVSPost2010PropOp43
 70
     1
102
RTVSPost2010Prop44ColorIndex
 90
        5
102
RTVSPost2010Prop44ColorRGB
 90
      255
102
RTVSPost2010PropOp44
 70
     1
102
RTVSPost2010Prop45
280
     0
102
RTVSPost2010PropOp45
 70
     1
102
RTVSPost2010Prop46
 90
       50
102
RTVSPost2010PropOp46
 70
     1
102
RTVSPost2010Prop47
 90
       50
102
RTVSPost2010PropOp47
 70
     1
102
RTVSPost2010Prop48
 90
       50
102
RTVSPost2010PropOp48
 70
     1
102
RTVSPost2010Prop49
280
     0
102
RTVSPost2010PropOp49
 70
     1
102
RTVSPost2010Prop50
 90
       50
102
RTVSPost2010PropOp50
 70
     1
102
RTVSPost2010Prop51ColorIndex
 90
      256
102
RTVSPost2010Prop51ColorRGB
 90
-16777216
102
RTVSPost2010PropOp51
 70
     0
102
RTVSPost2010Prop52
140
1.0
102
RTVSPost2010PropOp52
 70
     0
102
RTVSPost2010Prop53
 90
        2
102
RTVSPost2010PropOp53
 70
     1
102
RTVSPost2010Prop54
  1
strokes_ogs.tif
102
RTVSPost2010PropOp54
 70
     1
102
RTVSPost2010Prop55
280
     0
102
RTVSPost2010PropOp55
 70
     1
102
RTVSPost2010Prop56
140
1.0
102
RTVSPost2010PropOp56
 70
     1
102
RTVSPost2010Prop57
140
1.0
102
RTVSPost2010PropOp57
 70
     1
102
RTVSPropertyOp0
 70
     1
102
RTVSPropertyOp1
 70
     1
102
RTVSPropertyOp2
 70
     1
102
RTVSPropertyOp3
 70
     1
102
RTVSPropertyOp4
 70
     1
102
RTVSPropertyOp5
 70
     1
102
RTVSPropertyOp6
 70
     1
102
RTVSPropertyOp7
 70
     1
102
RTVSPropertyOp8
 70
     1
102
RTVSPropertyOp9
 70
     1
102
RTVSPropertyOp10
 70
     1
102
RTVSPropertyOp11
 70
     1
102
RTVSPropertyOp12
 70
     1
102
RTVSPropertyOp13
 70
     1
102
RTVSPropertyOp14
 70
     1
102
RTVSPropertyOp15
 70
     1
102
RTVSPropertyOp16
 70
     1
102
RTVSPropertyOp17
 70
     1
102
RTVSPropertyOp18
 70
     1
102
RTVSPropertyOp19
 70
     1
102
RTVSPropertyOp20
 70
     1
102
RTVSPropertyOp21
 70
     1
102
RTVSPropertyOp22
 70
     1
102
RTVSPropertyOp23
 70
     1
102
RTVSPropertyOp24
 70
     1
102
RTVSPropertyOp25
 70
     1
102
RTVSPropertyOp26
 70
     1
102
RTVSPropertyOp27
 70
     1
102
RTVSPropertyOp28
 70
     1
102
RTVSPropertyOp29
 70
     1
102
RTVSPropertyOp30
 70
     1
102
RTVSPropertyOp31
 70
     1
102
RTVSPropertyOp32
 70
     1
102
RTVSPropertyOp33
 70
     1
102
RTVSPropertyOp34
 70
     1
102
RTVSPropertyOp35
 70
     1
102
RTVSPropertyOp36
 70
     1
102
RTVSPropertyOp37
 70
     1
102
RTVSPropertyOp38
 70
     1
102
RTVSPropertyOp39
 70
     1
102
RTVSPropertyOp40
 70
     1
102
RTVSPropertyOp41
 70
     1
102
RTVSPropertyOp42
 70
     1
102
RTVSPropertyOp43
 70
     1
102
RTVSPropertyOp44
 70
     1
102
RTVSPropertyOp45
 70
     1
102
RTVSPropertyOp46
 70
     1
102
RTVSPropertyOp47
 70
     1
102
RTVSPropertyOp48
 70
     1
102
RTVSPropertyOp49
 70
     1
102
RTVSPropertyOp50
 70
     1
102
RTVSPropertyOp51
 70
     0
102
RTVSPropertyOp52
 70
     0
102
RTVSPropertyOp53
 70
     1
102
RTVSPropertyOp54
 70
     1
102
RTVSPropertyOp55
 70
     1
102
RTVSPropertyOp56
 70
     1
102
RTVSPropertyOp57
 70
     1
102
RTVSPropertyOp58
 70
     1
102
RTVSPropertyOp59
 70
     1
102
RTVSPropertyOp60
 70
     1
102
RTVSPropertyOp61
 70
     1
102
RTVSPropertyOp62
 70
     1
  0
XRECORD
  5
A78
102
{ACAD_REACTORS
330
A77
102
}
330
A77
100
AcDbXrecord
280
     1
102
RTVSPost2010Prop28
280
     0
102
RTVSPost2010PropOp28
 70
     1
102
RTVSPost2010Prop29
280
     1
102
RTVSPost2010PropOp29
 70
     1
102
RTVSPost2010Prop30
280
     1
102
RTVSPost2010PropOp30
 70
     1
102
RTVSPost2010Prop31
280
     0
102
RTVSPost2010PropOp31
 70
     1
102
RTVSPost2010Prop32
280
     0
102
RTVSPost2010PropOp32
 70
     1
102
RTVSPost2010Prop33
280
     0
102
RTVSPost2010PropOp33
 70
     1
102
RTVSPost2010Prop34
280
     0
102
RTVSPost2010PropOp34
 70
     1
102
RTVSPost2010Prop35
280
     0
102
RTVSPost2010PropOp35
 70
     1
102
RTVSPost2010Prop36
280
     0
102
RTVSPost2010PropOp36
 70
     1
102
RTVSPost2010Prop37
 90
       50
102
RTVSPost2010PropOp37
 70
     1
102
RTVSPost2010Prop38
140
0.0
102
RTVSPost2010PropOp38
 70
     1
102
RTVSPost2010Prop39
140
1.0
102
RTVSPost2010PropOp39
 70
     1
102
RTVSPost2010Prop40
 90
        0
102
RTVSPost2010PropOp40
 70
     1
102
RTVSPost2010Prop41ColorIndex
 90
       18
102
RTVSPost2010Prop41ColorRGB
 90
        0
102
RTVSPost2010PropOp41
 70
     1
102
RTVSPost2010Prop42
 90
       50
102
RTVSPost2010PropOp42
 70
     1
102
RTVSPost2010Prop43
 90
        3
102
RTVSPost2010PropOp43
 70
     1
102
RTVSPost2010Prop44ColorIndex
 90
        5
102
RTVSPost2010Prop44ColorRGB
 90
      255
102
RTVSPost2010PropOp44
 70
     1
102
RTVSPost2010Prop45
280
     0
102
RTVSPost2010PropOp45
 70
     1
102
RTVSPost2010Prop46
 90
       50
102
RTVSPost2010PropOp46
 70
     1
102
RTVSPost2010Prop47
 90
       50
102
RTVSPost2010PropOp47
 70
     1
102
RTVSPost2010Prop48
 90
       50
102
RTVSPost2010PropOp48
 70
     1
102
RTVSPost2010Prop49
280
     0
102
RTVSPost2010PropOp49
 70
     1
102
RTVSPost2010Prop50
 90
       50
102
RTVSPost2010PropOp50
 70
     1
102
RTVSPost2010Prop51ColorIndex
 90
      256
102
RTVSPost2010Prop51ColorRGB
 90
-16777216
102
RTVSPost2010PropOp51
 70
     0
102
RTVSPost2010Prop52
140
1.0
102
RTVSPost2010PropOp52
 70
     0
102
RTVSPost2010Prop53
 90
        2
102
RTVSPost2010PropOp53
 70
     1
102
RTVSPost2010Prop54
  1
strokes_ogs.tif
102
RTVSPost2010PropOp54
 70
     1
102
RTVSPost2010Prop55
280
     0
102
RTVSPost2010PropOp55
 70
     1
102
RTVSPost2010Prop56
140
1.0
102
RTVSPost2010PropOp56
 70
     1
102
RTVSPost2010Prop57
140
1.0
102
RTVSPost2010PropOp57
 70
     1
102
RTVSPropertyOp0
 70
     1
102
RTVSPropertyOp1
 70
     1
102
RTVSPropertyOp2
 70
     1
102
RTVSPropertyOp3
 70
     1
102
RTVSPropertyOp4
 70
     1
102
RTVSPropertyOp5
 70
     1
102
RTVSPropertyOp6
 70
     1
102
RTVSPropertyOp7
 70
     1
102
RTVSPropertyOp8
 70
     1
102
RTVSPropertyOp9
 70
     1
102
RTVSPropertyOp10
 70
     1
102
RTVSPropertyOp11
 70
     1
102
RTVSPropertyOp12
 70
     1
102
RTVSPropertyOp13
 70
     1
102
RTVSPropertyOp14
 70
     1
102
RTVSPropertyOp15
 70
     1
102
RTVSPropertyOp16
 70
     1
102
RTVSPropertyOp17
 70
     1
102
RTVSPropertyOp18
 70
     1
102
RTVSPropertyOp19
 70
     1
102
RTVSPropertyOp20
 70
     1
102
RTVSPropertyOp21
 70
     1
102
RTVSPropertyOp22
 70
     1
102
RTVSPropertyOp23
 70
     1
102
RTVSPropertyOp24
 70
     1
102
RTVSPropertyOp25
 70
     1
102
RTVSPropertyOp26
 70
     1
102
RTVSPropertyOp27
 70
     1
102
RTVSPropertyOp28
 70
     1
102
RTVSPropertyOp29
 70
     1
102
RTVSPropertyOp30
 70
     1
102
RTVSPropertyOp31
 70
     1
102
RTVSPropertyOp32
 70
     1
102
RTVSPropertyOp33
 70
     1
102
RTVSPropertyOp34
 70
     1
102
RTVSPropertyOp35
 70
     1
102
RTVSPropertyOp36
 70
     1
102
RTVSPropertyOp37
 70
     1
102
RTVSPropertyOp38
 70
     1
102
RTVSPropertyOp39
 70
     1
102
RTVSPropertyOp40
 70
     1
102
RTVSPropertyOp41
 70
     1
102
RTVSPropertyOp42
 70
     1
102
RTVSPropertyOp43
 70
     1
102
RTVSPropertyOp44
 70
     1
102
RTVSPropertyOp45
 70
     1
102
RTVSPropertyOp46
 70
     1
102
RTVSPropertyOp47
 70
     1
102
RTVSPropertyOp48
 70
     1
102
RTVSPropertyOp49
 70
     1
102
RTVSPropertyOp50
 70
     1
102
RTVSPropertyOp51
 70
     0
102
RTVSPropertyOp52
 70
     0
102
RTVSPropertyOp53
 70
     1
102
RTVSPropertyOp54
 70
     1
102
RTVSPropertyOp55
 70
     1
102
RTVSPropertyOp56
 70
     1
102
RTVSPropertyOp57
 70
     1
102
RTVSPropertyOp58
 70
     1
102
RTVSPropertyOp59
 70
     1
102
RTVSPropertyOp60
 70
     1
102
RTVSPropertyOp61
 70
     1
102
RTVSPropertyOp62
 70
     1
  0
XRECORD
  5
A6C
102
{ACAD_REACTORS
330
A6B
102
}
330
A6B
100
AcDbXrecord
280
     1
102
RTVSPost2010Prop28
280
     0
102
RTVSPost2010PropOp28
 70
     1
102
RTVSPost2010Prop29
280
     1
102
RTVSPost2010PropOp29
 70
     1
102
RTVSPost2010Prop30
280
     1
102
RTVSPost2010PropOp30
 70
     1
102
RTVSPost2010Prop31
280
     0
102
RTVSPost2010PropOp31
 70
     1
102
RTVSPost2010Prop32
280
     0
102
RTVSPost2010PropOp32
 70
     1
102
RTVSPost2010Prop33
280
     0
102
RTVSPost2010PropOp33
 70
     1
102
RTVSPost2010Prop34
280
     0
102
RTVSPost2010PropOp34
 70
     1
102
RTVSPost2010Prop35
280
     0
102
RTVSPost2010PropOp35
 70
     1
102
RTVSPost2010Prop36
280
     0
102
RTVSPost2010PropOp36
 70
     1
102
RTVSPost2010Prop37
 90
       50
102
RTVSPost2010PropOp37
 70
     1
102
RTVSPost2010Prop38
140
0.0
102
RTVSPost2010PropOp38
 70
     1
102
RTVSPost2010Prop39
140
1.0
102
RTVSPost2010PropOp39
 70
     1
102
RTVSPost2010Prop40
 90
        0
102
RTVSPost2010PropOp40
 70
     1
102
RTVSPost2010Prop41ColorIndex
 90
       18
102
RTVSPost2010Prop41ColorRGB
 90
        0
102
RTVSPost2010PropOp41
 70
     1
102
RTVSPost2010Prop42
 90
       50
102
RTVSPost2010PropOp42
 70
     1
102
RTVSPost2010Prop43
 90
        3
102
RTVSPost2010PropOp43
 70
     1
102
RTVSPost2010Prop44ColorIndex
 90
        5
102
RTVSPost2010Prop44ColorRGB
 90
      255
102
RTVSPost2010PropOp44
 70
     1
102
RTVSPost2010Prop45
280
     0
102
RTVSPost2010PropOp45
 70
     1
102
RTVSPost2010Prop46
 90
       50
102
RTVSPost2010PropOp46
 70
     1
102
RTVSPost2010Prop47
 90
       50
102
RTVSPost2010PropOp47
 70
     1
102
RTVSPost2010Prop48
 90
       50
102
RTVSPost2010PropOp48
 70
     1
102
RTVSPost2010Prop49
280
     0
102
RTVSPost2010PropOp49
 70
     1
102
RTVSPost2010Prop50
 90
       50
102
RTVSPost2010PropOp50
 70
     1
102
RTVSPost2010Prop51ColorIndex
 90
      256
102
RTVSPost2010Prop51ColorRGB
 90
-16777216
102
RTVSPost2010PropOp51
 70
     0
102
RTVSPost2010Prop52
140
1.0
102
RTVSPost2010PropOp52
 70
     0
102
RTVSPost2010Prop53
 90
        2
102
RTVSPost2010PropOp53
 70
     1
102
RTVSPost2010Prop54
  1
strokes_ogs.tif
102
RTVSPost2010PropOp54
 70
     1
102
RTVSPost2010Prop55
280
     0
102
RTVSPost2010PropOp55
 70
     1
102
RTVSPost2010Prop56
140
1.0
102
RTVSPost2010PropOp56
 70
     1
102
RTVSPost2010Prop57
140
1.0
102
RTVSPost2010PropOp57
 70
     1
102
RTVSPropertyOp0
 70
     0
102
RTVSPropertyOp1
 70
     0
102
RTVSPropertyOp2
 70
     0
102
RTVSPropertyOp3
 70
     0
102
RTVSPropertyOp4
 70
     0
102
RTVSPropertyOp5
 70
     0
102
RTVSPropertyOp6
 70
     0
102
RTVSPropertyOp7
 70
     0
102
RTVSPropertyOp8
 70
     0
102
RTVSPropertyOp9
 70
     0
102
RTVSPropertyOp10
 70
     0
102
RTVSPropertyOp11
 70
     0
102
RTVSPropertyOp12
 70
     0
102
RTVSPropertyOp13
 70
     0
102
RTVSPropertyOp14
 70
     2
102
RTVSPropertyOp15
 70
     0
102
RTVSPropertyOp16
 70
     0
102
RTVSPropertyOp17
 70
     0
102
RTVSPropertyOp18
 70
     0
102
RTVSPropertyOp19
 70
     0
102
RTVSPropertyOp20
 70
     0
102
RTVSPropertyOp21
 70
     0
102
RTVSPropertyOp22
 70
     0
102
RTVSPropertyOp23
 70
     0
102
RTVSPropertyOp24
 70
     0
102
RTVSPropertyOp25
 70
     0
102
RTVSPropertyOp26
 70
     0
102
RTVSPropertyOp27
 70
     0
102
RTVSPropertyOp28
 70
     1
102
RTVSPropertyOp29
 70
     1
102
RTVSPropertyOp30
 70
     1
102
RTVSPropertyOp31
 70
     1
102
RTVSPropertyOp32
 70
     1
102
RTVSPropertyOp33
 70
     1
102
RTVSPropertyOp34
 70
     1
102
RTVSPropertyOp35
 70
     1
102
RTVSPropertyOp36
 70
     1
102
RTVSPropertyOp37
 70
     1
102
RTVSPropertyOp38
 70
     1
102
RTVSPropertyOp39
 70
     1
102
RTVSPropertyOp40
 70
     1
102
RTVSPropertyOp41
 70
     1
102
RTVSPropertyOp42
 70
     1
102
RTVSPropertyOp43
 70
     1
102
RTVSPropertyOp44
 70
     1
102
RTVSPropertyOp45
 70
     1
102
RTVSPropertyOp46
 70
     1
102
RTVSPropertyOp47
 70
     1
102
RTVSPropertyOp48
 70
     1
102
RTVSPropertyOp49
 70
     1
102
RTVSPropertyOp50
 70
     1
102
RTVSPropertyOp51
 70
     0
102
RTVSPropertyOp52
 70
     0
102
RTVSPropertyOp53
 70
     1
102
RTVSPropertyOp54
 70
     1
102
RTVSPropertyOp55
 70
     1
102
RTVSPropertyOp56
 70
     1
102
RTVSPropertyOp57
 70
     1
102
RTVSPropertyOp58
 70
     1
102
RTVSPropertyOp59
 70
     1
102
RTVSPropertyOp60
 70
     1
102
RTVSPropertyOp61
 70
     1
102
RTVSPropertyOp62
 70
     1
  0
XRECORD
  5
A66
102
{ACAD_REACTORS
330
A65
102
}
330
A65
100
AcDbXrecord
280
     1
102
RTVSPost2010Prop28
280
     0
102
RTVSPost2010PropOp28
 70
     1
102
RTVSPost2010Prop29
280
     1
102
RTVSPost2010PropOp29
 70
     1
102
RTVSPost2010Prop30
280
     1
102
RTVSPost2010PropOp30
 70
     1
102
RTVSPost2010Prop31
280
     0
102
RTVSPost2010PropOp31
 70
     1
102
RTVSPost2010Prop32
280
     0
102
RTVSPost2010PropOp32
 70
     1
102
RTVSPost2010Prop33
280
     0
102
RTVSPost2010PropOp33
 70
     1
102
RTVSPost2010Prop34
280
     0
102
RTVSPost2010PropOp34
 70
     1
102
RTVSPost2010Prop35
280
     0
102
RTVSPost2010PropOp35
 70
     1
102
RTVSPost2010Prop36
280
     0
102
RTVSPost2010PropOp36
 70
     1
102
RTVSPost2010Prop37
 90
       50
102
RTVSPost2010PropOp37
 70
     1
102
RTVSPost2010Prop38
140
0.0
102
RTVSPost2010PropOp38
 70
     1
102
RTVSPost2010Prop39
140
1.0
102
RTVSPost2010PropOp39
 70
     1
102
RTVSPost2010Prop40
 90
        0
102
RTVSPost2010PropOp40
 70
     1
102
RTVSPost2010Prop41ColorIndex
 90
       18
102
RTVSPost2010Prop41ColorRGB
 90
        0
102
RTVSPost2010PropOp41
 70
     1
102
RTVSPost2010Prop42
 90
       50
102
RTVSPost2010PropOp42
 70
     1
102
RTVSPost2010Prop43
 90
        3
102
RTVSPost2010PropOp43
 70
     1
102
RTVSPost2010Prop44ColorIndex
 90
        5
102
RTVSPost2010Prop44ColorRGB
 90
      255
102
RTVSPost2010PropOp44
 70
     1
102
RTVSPost2010Prop45
280
     0
102
RTVSPost2010PropOp45
 70
     1
102
RTVSPost2010Prop46
 90
       50
102
RTVSPost2010PropOp46
 70
     1
102
RTVSPost2010Prop47
 90
       50
102
RTVSPost2010PropOp47
 70
     1
102
RTVSPost2010Prop48
 90
       50
102
RTVSPost2010PropOp48
 70
     1
102
RTVSPost2010Prop49
280
     0
102
RTVSPost2010PropOp49
 70
     1
102
RTVSPost2010Prop50
 90
       50
102
RTVSPost2010PropOp50
 70
     1
102
RTVSPost2010Prop51ColorIndex
 90
      256
102
RTVSPost2010Prop51ColorRGB
 90
-16777216
102
RTVSPost2010PropOp51
 70
     0
102
RTVSPost2010Prop52
140
1.0
102
RTVSPost2010PropOp52
 70
     0
102
RTVSPost2010Prop53
 90
        2
102
RTVSPost2010PropOp53
 70
     1
102
RTVSPost2010Prop54
  1
strokes_ogs.tif
102
RTVSPost2010PropOp54
 70
     1
102
RTVSPost2010Prop55
280
     0
102
RTVSPost2010PropOp55
 70
     1
102
RTVSPost2010Prop56
140
1.0
102
RTVSPost2010PropOp56
 70
     1
102
RTVSPost2010Prop57
140
1.0
102
RTVSPost2010PropOp57
 70
     1
102
RTVSPropertyOp0
 70
     1
102
RTVSPropertyOp1
 70
     1
102
RTVSPropertyOp2
 70
     1
102
RTVSPropertyOp3
 70
     1
102
RTVSPropertyOp4
 70
     1
102
RTVSPropertyOp5
 70
     1
102
RTVSPropertyOp6
 70
     1
102
RTVSPropertyOp7
 70
     1
102
RTVSPropertyOp8
 70
     1
102
RTVSPropertyOp9
 70
     1
102
RTVSPropertyOp10
 70
     1
102
RTVSPropertyOp11
 70
     1
102
RTVSPropertyOp12
 70
     1
102
RTVSPropertyOp13
 70
     1
102
RTVSPropertyOp14
 70
     1
102
RTVSPropertyOp15
 70
     1
102
RTVSPropertyOp16
 70
     1
102
RTVSPropertyOp17
 70
     1
102
RTVSPropertyOp18
 70
     1
102
RTVSPropertyOp19
 70
     1
102
RTVSPropertyOp20
 70
     1
102
RTVSPropertyOp21
 70
     1
102
RTVSPropertyOp22
 70
     1
102
RTVSPropertyOp23
 70
     1
102
RTVSPropertyOp24
 70
     1
102
RTVSPropertyOp25
 70
     1
102
RTVSPropertyOp26
 70
     1
102
RTVSPropertyOp27
 70
     1
102
RTVSPropertyOp28
 70
     1
102
RTVSPropertyOp29
 70
     1
102
RTVSPropertyOp30
 70
     1
102
RTVSPropertyOp31
 70
     1
102
RTVSPropertyOp32
 70
     1
102
RTVSPropertyOp33
 70
     1
102
RTVSPropertyOp34
 70
     1
102
RTVSPropertyOp35
 70
     1
102
RTVSPropertyOp36
 70
     1
102
RTVSPropertyOp37
 70
     1
102
RTVSPropertyOp38
 70
     1
102
RTVSPropertyOp39
 70
     1
102
RTVSPropertyOp40
 70
     1
102
RTVSPropertyOp41
 70
     1
102
RTVSPropertyOp42
 70
     1
102
RTVSPropertyOp43
 70
     1
102
RTVSPropertyOp44
 70
     1
102
RTVSPropertyOp45
 70
     1
102
RTVSPropertyOp46
 70
     1
102
RTVSPropertyOp47
 70
     1
102
RTVSPropertyOp48
 70
     1
102
RTVSPropertyOp49
 70
     1
102
RTVSPropertyOp50
 70
     1
102
RTVSPropertyOp51
 70
     0
102
RTVSPropertyOp52
 70
     0
102
RTVSPropertyOp53
 70
     1
102
RTVSPropertyOp54
 70
     1
102
RTVSPropertyOp55
 70
     1
102
RTVSPropertyOp56
 70
     1
102
RTVSPropertyOp57
 70
     1
102
RTVSPropertyOp58
 70
     1
102
RTVSPropertyOp59
 70
     1
102
RTVSPropertyOp60
 70
     1
102
RTVSPropertyOp61
 70
     1
102
RTVSPropertyOp62
 70
     1
  0
XRECORD
  5
A6E
102
{ACAD_REACTORS
330
A6D
102
}
330
A6D
100
AcDbXrecord
280
     1
102
RTVSPost2010Prop28
280
     0
102
RTVSPost2010PropOp28
 70
     1
102
RTVSPost2010Prop29
280
     1
102
RTVSPost2010PropOp29
 70
     1
102
RTVSPost2010Prop30
280
     1
102
RTVSPost2010PropOp30
 70
     1
102
RTVSPost2010Prop31
280
     0
102
RTVSPost2010PropOp31
 70
     1
102
RTVSPost2010Prop32
280
     0
102
RTVSPost2010PropOp32
 70
     1
102
RTVSPost2010Prop33
280
     0
102
RTVSPost2010PropOp33
 70
     1
102
RTVSPost2010Prop34
280
     0
102
RTVSPost2010PropOp34
 70
     1
102
RTVSPost2010Prop35
280
     0
102
RTVSPost2010PropOp35
 70
     1
102
RTVSPost2010Prop36
280
     0
102
RTVSPost2010PropOp36
 70
     1
102
RTVSPost2010Prop37
 90
       50
102
RTVSPost2010PropOp37
 70
     1
102
RTVSPost2010Prop38
140
0.0
102
RTVSPost2010PropOp38
 70
     1
102
RTVSPost2010Prop39
140
1.0
102
RTVSPost2010PropOp39
 70
     1
102
RTVSPost2010Prop40
 90
        0
102
RTVSPost2010PropOp40
 70
     1
102
RTVSPost2010Prop41ColorIndex
 90
       18
102
RTVSPost2010Prop41ColorRGB
 90
        0
102
RTVSPost2010PropOp41
 70
     1
102
RTVSPost2010Prop42
 90
       50
102
RTVSPost2010PropOp42
 70
     1
102
RTVSPost2010Prop43
 90
        3
102
RTVSPost2010PropOp43
 70
     1
102
RTVSPost2010Prop44ColorIndex
 90
        5
102
RTVSPost2010Prop44ColorRGB
 90
      255
102
RTVSPost2010PropOp44
 70
     1
102
RTVSPost2010Prop45
280
     0
102
RTVSPost2010PropOp45
 70
     1
102
RTVSPost2010Prop46
 90
       50
102
RTVSPost2010PropOp46
 70
     1
102
RTVSPost2010Prop47
 90
       50
102
RTVSPost2010PropOp47
 70
     1
102
RTVSPost2010Prop48
 90
       50
102
RTVSPost2010PropOp48
 70
     1
102
RTVSPost2010Prop49
280
     0
102
RTVSPost2010PropOp49
 70
     1
102
RTVSPost2010Prop50
 90
       50
102
RTVSPost2010PropOp50
 70
     1
102
RTVSPost2010Prop51ColorIndex
 90
      256
102
RTVSPost2010Prop51ColorRGB
 90
-16777216
102
RTVSPost2010PropOp51
 70
     0
102
RTVSPost2010Prop52
140
1.0
102
RTVSPost2010PropOp52
 70
     0
102
RTVSPost2010Prop53
 90
        2
102
RTVSPost2010PropOp53
 70
     1
102
RTVSPost2010Prop54
  1
strokes_ogs.tif
102
RTVSPost2010PropOp54
 70
     1
102
RTVSPost2010Prop55
280
     0
102
RTVSPost2010PropOp55
 70
     1
102
RTVSPost2010Prop56
140
1.0
102
RTVSPost2010PropOp56
 70
     1
102
RTVSPost2010Prop57
140
1.0
102
RTVSPost2010PropOp57
 70
     1
102
RTVSPropertyOp0
 70
     0
102
RTVSPropertyOp1
 70
     0
102
RTVSPropertyOp2
 70
     0
102
RTVSPropertyOp3
 70
     0
102
RTVSPropertyOp4
 70
     0
102
RTVSPropertyOp5
 70
     0
102
RTVSPropertyOp6
 70
     0
102
RTVSPropertyOp7
 70
     0
102
RTVSPropertyOp8
 70
     0
102
RTVSPropertyOp9
 70
     0
102
RTVSPropertyOp10
 70
     0
102
RTVSPropertyOp11
 70
     0
102
RTVSPropertyOp12
 70
     0
102
RTVSPropertyOp13
 70
     0
102
RTVSPropertyOp14
 70
     2
102
RTVSPropertyOp15
 70
     0
102
RTVSPropertyOp16
 70
     0
102
RTVSPropertyOp17
 70
     0
102
RTVSPropertyOp18
 70
     0
102
RTVSPropertyOp19
 70
     0
102
RTVSPropertyOp20
 70
     0
102
RTVSPropertyOp21
 70
     0
102
RTVSPropertyOp22
 70
     0
102
RTVSPropertyOp23
 70
     0
102
RTVSPropertyOp24
 70
     0
102
RTVSPropertyOp25
 70
     0
102
RTVSPropertyOp26
 70
     0
102
RTVSPropertyOp27
 70
     0
102
RTVSPropertyOp28
 70
     1
102
RTVSPropertyOp29
 70
     1
102
RTVSPropertyOp30
 70
     1
102
RTVSPropertyOp31
 70
     1
102
RTVSPropertyOp32
 70
     1
102
RTVSPropertyOp33
 70
     1
102
RTVSPropertyOp34
 70
     1
102
RTVSPropertyOp35
 70
     1
102
RTVSPropertyOp36
 70
     1
102
RTVSPropertyOp37
 70
     1
102
RTVSPropertyOp38
 70
     1
102
RTVSPropertyOp39
 70
     1
102
RTVSPropertyOp40
 70
     1
102
RTVSPropertyOp41
 70
     1
102
RTVSPropertyOp42
 70
     1
102
RTVSPropertyOp43
 70
     1
102
RTVSPropertyOp44
 70
     1
102
RTVSPropertyOp45
 70
     1
102
RTVSPropertyOp46
 70
     1
102
RTVSPropertyOp47
 70
     1
102
RTVSPropertyOp48
 70
     1
102
RTVSPropertyOp49
 70
     1
102
RTVSPropertyOp50
 70
     1
102
RTVSPropertyOp51
 70
     0
102
RTVSPropertyOp52
 70
     0
102
RTVSPropertyOp53
 70
     1
102
RTVSPropertyOp54
 70
     1
102
RTVSPropertyOp55
 70
     1
102
RTVSPropertyOp56
 70
     1
102
RTVSPropertyOp57
 70
     1
102
RTVSPropertyOp58
 70
     1
102
RTVSPropertyOp59
 70
     1
102
RTVSPropertyOp60
 70
     1
102
RTVSPropertyOp61
 70
     1
102
RTVSPropertyOp62
 70
     1
  0
XRECORD
  5
A5E
102
{ACAD_REACTORS
330
A5D
102
}
330
A5D
100
AcDbXrecord
280
     1
102
RTVSPost2010Prop28
280
     0
102
RTVSPost2010PropOp28
 70
     1
102
RTVSPost2010Prop29
280
     1
102
RTVSPost2010PropOp29
 70
     1
102
RTVSPost2010Prop30
280
     1
102
RTVSPost2010PropOp30
 70
     1
102
RTVSPost2010Prop31
280
     0
102
RTVSPost2010PropOp31
 70
     1
102
RTVSPost2010Prop32
280
     0
102
RTVSPost2010PropOp32
 70
     1
102
RTVSPost2010Prop33
280
     0
102
RTVSPost2010PropOp33
 70
     1
102
RTVSPost2010Prop34
280
     0
102
RTVSPost2010PropOp34
 70
     1
102
RTVSPost2010Prop35
280
     0
102
RTVSPost2010PropOp35
 70
     1
102
RTVSPost2010Prop36
280
     0
102
RTVSPost2010PropOp36
 70
     1
102
RTVSPost2010Prop37
 90
       50
102
RTVSPost2010PropOp37
 70
     1
102
RTVSPost2010Prop38
140
0.0
102
RTVSPost2010PropOp38
 70
     1
102
RTVSPost2010Prop39
140
1.0
102
RTVSPost2010PropOp39
 70
     1
102
RTVSPost2010Prop40
 90
        0
102
RTVSPost2010PropOp40
 70
     1
102
RTVSPost2010Prop41ColorIndex
 90
       18
102
RTVSPost2010Prop41ColorRGB
 90
        0
102
RTVSPost2010PropOp41
 70
     1
102
RTVSPost2010Prop42
 90
       50
102
RTVSPost2010PropOp42
 70
     1
102
RTVSPost2010Prop43
 90
        3
102
RTVSPost2010PropOp43
 70
     1
102
RTVSPost2010Prop44ColorIndex
 90
        5
102
RTVSPost2010Prop44ColorRGB
 90
      255
102
RTVSPost2010PropOp44
 70
     1
102
RTVSPost2010Prop45
280
     0
102
RTVSPost2010PropOp45
 70
     1
102
RTVSPost2010Prop46
 90
       50
102
RTVSPost2010PropOp46
 70
     1
102
RTVSPost2010Prop47
 90
       50
102
RTVSPost2010PropOp47
 70
     1
102
RTVSPost2010Prop48
 90
       50
102
RTVSPost2010PropOp48
 70
     1
102
RTVSPost2010Prop49
280
     0
102
RTVSPost2010PropOp49
 70
     1
102
RTVSPost2010Prop50
 90
       50
102
RTVSPost2010PropOp50
 70
     1
102
RTVSPost2010Prop51ColorIndex
 90
      256
102
RTVSPost2010Prop51ColorRGB
 90
-16777216
102
RTVSPost2010PropOp51
 70
     0
102
RTVSPost2010Prop52
140
1.0
102
RTVSPost2010PropOp52
 70
     0
102
RTVSPost2010Prop53
 90
        2
102
RTVSPost2010PropOp53
 70
     1
102
RTVSPost2010Prop54
  1
strokes_ogs.tif
102
RTVSPost2010PropOp54
 70
     1
102
RTVSPost2010Prop55
280
     0
102
RTVSPost2010PropOp55
 70
     1
102
RTVSPost2010Prop56
140
1.0
102
RTVSPost2010PropOp56
 70
     1
102
RTVSPost2010Prop57
140
1.0
102
RTVSPost2010PropOp57
 70
     1
102
RTVSPropertyOp0
 70
     1
102
RTVSPropertyOp1
 70
     1
102
RTVSPropertyOp2
 70
     1
102
RTVSPropertyOp3
 70
     1
102
RTVSPropertyOp4
 70
     1
102
RTVSPropertyOp5
 70
     1
102
RTVSPropertyOp6
 70
     1
102
RTVSPropertyOp7
 70
     1
102
RTVSPropertyOp8
 70
     1
102
RTVSPropertyOp9
 70
     1
102
RTVSPropertyOp10
 70
     1
102
RTVSPropertyOp11
 70
     1
102
RTVSPropertyOp12
 70
     1
102
RTVSPropertyOp13
 70
     1
102
RTVSPropertyOp14
 70
     1
102
RTVSPropertyOp15
 70
     1
102
RTVSPropertyOp16
 70
     1
102
RTVSPropertyOp17
 70
     1
102
RTVSPropertyOp18
 70
     1
102
RTVSPropertyOp19
 70
     1
102
RTVSPropertyOp20
 70
     1
102
RTVSPropertyOp21
 70
     1
102
RTVSPropertyOp22
 70
     1
102
RTVSPropertyOp23
 70
     1
102
RTVSPropertyOp24
 70
     1
102
RTVSPropertyOp25
 70
     1
102
RTVSPropertyOp26
 70
     1
102
RTVSPropertyOp27
 70
     1
102
RTVSPropertyOp28
 70
     1
102
RTVSPropertyOp29
 70
     1
102
RTVSPropertyOp30
 70
     1
102
RTVSPropertyOp31
 70
     1
102
RTVSPropertyOp32
 70
     1
102
RTVSPropertyOp33
 70
     1
102
RTVSPropertyOp34
 70
     1
102
RTVSPropertyOp35
 70
     1
102
RTVSPropertyOp36
 70
     1
102
RTVSPropertyOp37
 70
     1
102
RTVSPropertyOp38
 70
     1
102
RTVSPropertyOp39
 70
     1
102
RTVSPropertyOp40
 70
     1
102
RTVSPropertyOp41
 70
     1
102
RTVSPropertyOp42
 70
     1
102
RTVSPropertyOp43
 70
     1
102
RTVSPropertyOp44
 70
     1
102
RTVSPropertyOp45
 70
     1
102
RTVSPropertyOp46
 70
     1
102
RTVSPropertyOp47
 70
     1
102
RTVSPropertyOp48
 70
     1
102
RTVSPropertyOp49
 70
     1
102
RTVSPropertyOp50
 70
     1
102
RTVSPropertyOp51
 70
     0
102
RTVSPropertyOp52
 70
     0
102
RTVSPropertyOp53
 70
     1
102
RTVSPropertyOp54
 70
     1
102
RTVSPropertyOp55
 70
     1
102
RTVSPropertyOp56
 70
     1
102
RTVSPropertyOp57
 70
     1
102
RTVSPropertyOp58
 70
     1
102
RTVSPropertyOp59
 70
     1
102
RTVSPropertyOp60
 70
     1
102
RTVSPropertyOp61
 70
     1
102
RTVSPropertyOp62
 70
     1
  0
XRECORD
  5
A82
102
{ACAD_REACTORS
330
A81
102
}
330
A81
100
AcDbXrecord
280
     1
102
RTVSPost2010Prop28
280
     0
102
RTVSPost2010PropOp28
 70
     1
102
RTVSPost2010Prop29
280
     1
102
RTVSPost2010PropOp29
 70
     1
102
RTVSPost2010Prop30
280
     1
102
RTVSPost2010PropOp30
 70
     1
102
RTVSPost2010Prop31
280
     0
102
RTVSPost2010PropOp31
 70
     1
102
RTVSPost2010Prop32
280
     0
102
RTVSPost2010PropOp32
 70
     1
102
RTVSPost2010Prop33
280
     0
102
RTVSPost2010PropOp33
 70
     1
102
RTVSPost2010Prop34
280
     0
102
RTVSPost2010PropOp34
 70
     1
102
RTVSPost2010Prop35
280
     0
102
RTVSPost2010PropOp35
 70
     1
102
RTVSPost2010Prop36
280
     0
102
RTVSPost2010PropOp36
 70
     1
102
RTVSPost2010Prop37
 90
       50
102
RTVSPost2010PropOp37
 70
     1
102
RTVSPost2010Prop38
140
0.0
102
RTVSPost2010PropOp38
 70
     1
102
RTVSPost2010Prop39
140
1.0
102
RTVSPost2010PropOp39
 70
     1
102
RTVSPost2010Prop40
 90
        0
102
RTVSPost2010PropOp40
 70
     1
102
RTVSPost2010Prop41ColorIndex
 90
       18
102
RTVSPost2010Prop41ColorRGB
 90
        0
102
RTVSPost2010PropOp41
 70
     1
102
RTVSPost2010Prop42
 90
       50
102
RTVSPost2010PropOp42
 70
     1
102
RTVSPost2010Prop43
 90
        3
102
RTVSPost2010PropOp43
 70
     1
102
RTVSPost2010Prop44ColorIndex
 90
        5
102
RTVSPost2010Prop44ColorRGB
 90
      255
102
RTVSPost2010PropOp44
 70
     1
102
RTVSPost2010Prop45
280
     0
102
RTVSPost2010PropOp45
 70
     1
102
RTVSPost2010Prop46
 90
       50
102
RTVSPost2010PropOp46
 70
     1
102
RTVSPost2010Prop47
 90
       50
102
RTVSPost2010PropOp47
 70
     1
102
RTVSPost2010Prop48
 90
       50
102
RTVSPost2010PropOp48
 70
     1
102
RTVSPost2010Prop49
280
     0
102
RTVSPost2010PropOp49
 70
     1
102
RTVSPost2010Prop50
 90
       50
102
RTVSPost2010PropOp50
 70
     1
102
RTVSPost2010Prop51ColorIndex
 90
      256
102
RTVSPost2010Prop51ColorRGB
 90
-16777216
102
RTVSPost2010PropOp51
 70
     0
102
RTVSPost2010Prop52
140
1.0
102
RTVSPost2010PropOp52
 70
     0
102
RTVSPost2010Prop53
 90
        2
102
RTVSPost2010PropOp53
 70
     1
102
RTVSPost2010Prop54
  1
strokes_ogs.tif
102
RTVSPost2010PropOp54
 70
     1
102
RTVSPost2010Prop55
280
     0
102
RTVSPost2010PropOp55
 70
     1
102
RTVSPost2010Prop56
140
1.0
102
RTVSPost2010PropOp56
 70
     1
102
RTVSPost2010Prop57
140
1.0
102
RTVSPost2010PropOp57
 70
     1
102
RTVSPropertyOp0
 70
     1
102
RTVSPropertyOp1
 70
     1
102
RTVSPropertyOp2
 70
     1
102
RTVSPropertyOp3
 70
     1
102
RTVSPropertyOp4
 70
     1
102
RTVSPropertyOp5
 70
     1
102
RTVSPropertyOp6
 70
     1
102
RTVSPropertyOp7
 70
     1
102
RTVSPropertyOp8
 70
     1
102
RTVSPropertyOp9
 70
     1
102
RTVSPropertyOp10
 70
     1
102
RTVSPropertyOp11
 70
     1
102
RTVSPropertyOp12
 70
     1
102
RTVSPropertyOp13
 70
     1
102
RTVSPropertyOp14
 70
     1
102
RTVSPropertyOp15
 70
     1
102
RTVSPropertyOp16
 70
     1
102
RTVSPropertyOp17
 70
     1
102
RTVSPropertyOp18
 70
     1
102
RTVSPropertyOp19
 70
     1
102
RTVSPropertyOp20
 70
     1
102
RTVSPropertyOp21
 70
     1
102
RTVSPropertyOp22
 70
     1
102
RTVSPropertyOp23
 70
     1
102
RTVSPropertyOp24
 70
     1
102
RTVSPropertyOp25
 70
     1
102
RTVSPropertyOp26
 70
     1
102
RTVSPropertyOp27
 70
     1
102
RTVSPropertyOp28
 70
     1
102
RTVSPropertyOp29
 70
     1
102
RTVSPropertyOp30
 70
     1
102
RTVSPropertyOp31
 70
     1
102
RTVSPropertyOp32
 70
     1
102
RTVSPropertyOp33
 70
     1
102
RTVSPropertyOp34
 70
     1
102
RTVSPropertyOp35
 70
     1
102
RTVSPropertyOp36
 70
     1
102
RTVSPropertyOp37
 70
     1
102
RTVSPropertyOp38
 70
     1
102
RTVSPropertyOp39
 70
     1
102
RTVSPropertyOp40
 70
     1
102
RTVSPropertyOp41
 70
     1
102
RTVSPropertyOp42
 70
     1
102
RTVSPropertyOp43
 70
     1
102
RTVSPropertyOp44
 70
     1
102
RTVSPropertyOp45
 70
     1
102
RTVSPropertyOp46
 70
     1
102
RTVSPropertyOp47
 70
     1
102
RTVSPropertyOp48
 70
     1
102
RTVSPropertyOp49
 70
     1
102
RTVSPropertyOp50
 70
     1
102
RTVSPropertyOp51
 70
     0
102
RTVSPropertyOp52
 70
     0
102
RTVSPropertyOp53
 70
     1
102
RTVSPropertyOp54
 70
     1
102
RTVSPropertyOp55
 70
     1
102
RTVSPropertyOp56
 70
     1
102
RTVSPropertyOp57
 70
     1
102
RTVSPropertyOp58
 70
     1
102
RTVSPropertyOp59
 70
     1
102
RTVSPropertyOp60
 70
     1
102
RTVSPropertyOp61
 70
     1
102
RTVSPropertyOp62
 70
     1
  0
XRECORD
  5
A80
102
{ACAD_REACTORS
330
A7F
102
}
330
A7F
100
AcDbXrecord
280
     1
102
RTVSPost2010Prop28
280
     0
102
RTVSPost2010PropOp28
 70
     1
102
RTVSPost2010Prop29
280
     1
102
RTVSPost2010PropOp29
 70
     1
102
RTVSPost2010Prop30
280
     1
102
RTVSPost2010PropOp30
 70
     1
102
RTVSPost2010Prop31
280
     0
102
RTVSPost2010PropOp31
 70
     1
102
RTVSPost2010Prop32
280
     0
102
RTVSPost2010PropOp32
 70
     1
102
RTVSPost2010Prop33
280
     0
102
RTVSPost2010PropOp33
 70
     1
102
RTVSPost2010Prop34
280
     0
102
RTVSPost2010PropOp34
 70
     1
102
RTVSPost2010Prop35
280
     0
102
RTVSPost2010PropOp35
 70
     1
102
RTVSPost2010Prop36
280
     0
102
RTVSPost2010PropOp36
 70
     1
102
RTVSPost2010Prop37
 90
       50
102
RTVSPost2010PropOp37
 70
     1
102
RTVSPost2010Prop38
140
0.0
102
RTVSPost2010PropOp38
 70
     1
102
RTVSPost2010Prop39
140
1.0
102
RTVSPost2010PropOp39
 70
     1
102
RTVSPost2010Prop40
 90
        0
102
RTVSPost2010PropOp40
 70
     1
102
RTVSPost2010Prop41ColorIndex
 90
       18
102
RTVSPost2010Prop41ColorRGB
 90
        0
102
RTVSPost2010PropOp41
 70
     1
102
RTVSPost2010Prop42
 90
       50
102
RTVSPost2010PropOp42
 70
     1
102
RTVSPost2010Prop43
 90
        3
102
RTVSPost2010PropOp43
 70
     1
102
RTVSPost2010Prop44ColorIndex
 90
        5
102
RTVSPost2010Prop44ColorRGB
 90
      255
102
RTVSPost2010PropOp44
 70
     1
102
RTVSPost2010Prop45
280
     0
102
RTVSPost2010PropOp45
 70
     1
102
RTVSPost2010Prop46
 90
       50
102
RTVSPost2010PropOp46
 70
     1
102
RTVSPost2010Prop47
 90
       50
102
RTVSPost2010PropOp47
 70
     1
102
RTVSPost2010Prop48
 90
       50
102
RTVSPost2010PropOp48
 70
     1
102
RTVSPost2010Prop49
280
     0
102
RTVSPost2010PropOp49
 70
     1
102
RTVSPost2010Prop50
 90
       50
102
RTVSPost2010PropOp50
 70
     1
102
RTVSPost2010Prop51ColorIndex
 90
      256
102
RTVSPost2010Prop51ColorRGB
 90
-16777216
102
RTVSPost2010PropOp51
 70
     0
102
RTVSPost2010Prop52
140
1.0
102
RTVSPost2010PropOp52
 70
     0
102
RTVSPost2010Prop53
 90
        2
102
RTVSPost2010PropOp53
 70
     1
102
RTVSPost2010Prop54
  1
strokes_ogs.tif
102
RTVSPost2010PropOp54
 70
     1
102
RTVSPost2010Prop55
280
     0
102
RTVSPost2010PropOp55
 70
     1
102
RTVSPost2010Prop56
140
1.0
102
RTVSPost2010PropOp56
 70
     1
102
RTVSPost2010Prop57
140
1.0
102
RTVSPost2010PropOp57
 70
     1
102
RTVSPropertyOp0
 70
     1
102
RTVSPropertyOp1
 70
     1
102
RTVSPropertyOp2
 70
     1
102
RTVSPropertyOp3
 70
     1
102
RTVSPropertyOp4
 70
     1
102
RTVSPropertyOp5
 70
     1
102
RTVSPropertyOp6
 70
     1
102
RTVSPropertyOp7
 70
     1
102
RTVSPropertyOp8
 70
     1
102
RTVSPropertyOp9
 70
     1
102
RTVSPropertyOp10
 70
     1
102
RTVSPropertyOp11
 70
     1
102
RTVSPropertyOp12
 70
     1
102
RTVSPropertyOp13
 70
     1
102
RTVSPropertyOp14
 70
     1
102
RTVSPropertyOp15
 70
     1
102
RTVSPropertyOp16
 70
     1
102
RTVSPropertyOp17
 70
     1
102
RTVSPropertyOp18
 70
     1
102
RTVSPropertyOp19
 70
     1
102
RTVSPropertyOp20
 70
     1
102
RTVSPropertyOp21
 70
     1
102
RTVSPropertyOp22
 70
     1
102
RTVSPropertyOp23
 70
     1
102
RTVSPropertyOp24
 70
     1
102
RTVSPropertyOp25
 70
     1
102
RTVSPropertyOp26
 70
     1
102
RTVSPropertyOp27
 70
     1
102
RTVSPropertyOp28
 70
     1
102
RTVSPropertyOp29
 70
     1
102
RTVSPropertyOp30
 70
     1
102
RTVSPropertyOp31
 70
     1
102
RTVSPropertyOp32
 70
     1
102
RTVSPropertyOp33
 70
     1
102
RTVSPropertyOp34
 70
     1
102
RTVSPropertyOp35
 70
     1
102
RTVSPropertyOp36
 70
     1
102
RTVSPropertyOp37
 70
     1
102
RTVSPropertyOp38
 70
     1
102
RTVSPropertyOp39
 70
     1
102
RTVSPropertyOp40
 70
     1
102
RTVSPropertyOp41
 70
     1
102
RTVSPropertyOp42
 70
     1
102
RTVSPropertyOp43
 70
     1
102
RTVSPropertyOp44
 70
     1
102
RTVSPropertyOp45
 70
     1
102
RTVSPropertyOp46
 70
     1
102
RTVSPropertyOp47
 70
     1
102
RTVSPropertyOp48
 70
     1
102
RTVSPropertyOp49
 70
     1
102
RTVSPropertyOp50
 70
     1
102
RTVSPropertyOp51
 70
     0
102
RTVSPropertyOp52
 70
     0
102
RTVSPropertyOp53
 70
     1
102
RTVSPropertyOp54
 70
     1
102
RTVSPropertyOp55
 70
     1
102
RTVSPropertyOp56
 70
     1
102
RTVSPropertyOp57
 70
     1
102
RTVSPropertyOp58
 70
     1
102
RTVSPropertyOp59
 70
     1
102
RTVSPropertyOp60
 70
     1
102
RTVSPropertyOp61
 70
     1
102
RTVSPropertyOp62
 70
     1
  0
XRECORD
  5
A7A
102
{ACAD_REACTORS
330
A79
102
}
330
A79
100
AcDbXrecord
280
     1
102
RTVSPost2010Prop28
280
     0
102
RTVSPost2010PropOp28
 70
     1
102
RTVSPost2010Prop29
280
     1
102
RTVSPost2010PropOp29
 70
     1
102
RTVSPost2010Prop30
280
     1
102
RTVSPost2010PropOp30
 70
     1
102
RTVSPost2010Prop31
280
     0
102
RTVSPost2010PropOp31
 70
     1
102
RTVSPost2010Prop32
280
     0
102
RTVSPost2010PropOp32
 70
     1
102
RTVSPost2010Prop33
280
     0
102
RTVSPost2010PropOp33
 70
     1
102
RTVSPost2010Prop34
280
     0
102
RTVSPost2010PropOp34
 70
     1
102
RTVSPost2010Prop35
280
     0
102
RTVSPost2010PropOp35
 70
     1
102
RTVSPost2010Prop36
280
     0
102
RTVSPost2010PropOp36
 70
     1
102
RTVSPost2010Prop37
 90
       50
102
RTVSPost2010PropOp37
 70
     1
102
RTVSPost2010Prop38
140
0.0
102
RTVSPost2010PropOp38
 70
     1
102
RTVSPost2010Prop39
140
1.0
102
RTVSPost2010PropOp39
 70
     1
102
RTVSPost2010Prop40
 90
        0
102
RTVSPost2010PropOp40
 70
     1
102
RTVSPost2010Prop41ColorIndex
 90
       18
102
RTVSPost2010Prop41ColorRGB
 90
        0
102
RTVSPost2010PropOp41
 70
     1
102
RTVSPost2010Prop42
 90
       50
102
RTVSPost2010PropOp42
 70
     1
102
RTVSPost2010Prop43
 90
        3
102
RTVSPost2010PropOp43
 70
     1
102
RTVSPost2010Prop44ColorIndex
 90
        5
102
RTVSPost2010Prop44ColorRGB
 90
      255
102
RTVSPost2010PropOp44
 70
     1
102
RTVSPost2010Prop45
280
     0
102
RTVSPost2010PropOp45
 70
     1
102
RTVSPost2010Prop46
 90
       50
102
RTVSPost2010PropOp46
 70
     1
102
RTVSPost2010Prop47
 90
       50
102
RTVSPost2010PropOp47
 70
     1
102
RTVSPost2010Prop48
 90
       50
102
RTVSPost2010PropOp48
 70
     1
102
RTVSPost2010Prop49
280
     0
102
RTVSPost2010PropOp49
 70
     1
102
RTVSPost2010Prop50
 90
       50
102
RTVSPost2010PropOp50
 70
     1
102
RTVSPost2010Prop51ColorIndex
 90
      256
102
RTVSPost2010Prop51ColorRGB
 90
-16777216
102
RTVSPost2010PropOp51
 70
     0
102
RTVSPost2010Prop52
140
1.0
102
RTVSPost2010PropOp52
 70
     0
102
RTVSPost2010Prop53
 90
        2
102
RTVSPost2010PropOp53
 70
     1
102
RTVSPost2010Prop54
  1
strokes_ogs.tif
102
RTVSPost2010PropOp54
 70
     1
102
RTVSPost2010Prop55
280
     0
102
RTVSPost2010PropOp55
 70
     1
102
RTVSPost2010Prop56
140
1.0
102
RTVSPost2010PropOp56
 70
     1
102
RTVSPost2010Prop57
140
1.0
102
RTVSPost2010PropOp57
 70
     1
102
RTVSPropertyOp0
 70
     1
102
RTVSPropertyOp1
 70
     1
102
RTVSPropertyOp2
 70
     1
102
RTVSPropertyOp3
 70
     1
102
RTVSPropertyOp4
 70
     1
102
RTVSPropertyOp5
 70
     1
102
RTVSPropertyOp6
 70
     1
102
RTVSPropertyOp7
 70
     1
102
RTVSPropertyOp8
 70
     1
102
RTVSPropertyOp9
 70
     1
102
RTVSPropertyOp10
 70
     1
102
RTVSPropertyOp11
 70
     1
102
RTVSPropertyOp12
 70
     1
102
RTVSPropertyOp13
 70
     1
102
RTVSPropertyOp14
 70
     1
102
RTVSPropertyOp15
 70
     1
102
RTVSPropertyOp16
 70
     1
102
RTVSPropertyOp17
 70
     1
102
RTVSPropertyOp18
 70
     1
102
RTVSPropertyOp19
 70
     1
102
RTVSPropertyOp20
 70
     1
102
RTVSPropertyOp21
 70
     1
102
RTVSPropertyOp22
 70
     1
102
RTVSPropertyOp23
 70
     1
102
RTVSPropertyOp24
 70
     1
102
RTVSPropertyOp25
 70
     1
102
RTVSPropertyOp26
 70
     1
102
RTVSPropertyOp27
 70
     1
102
RTVSPropertyOp28
 70
     1
102
RTVSPropertyOp29
 70
     1
102
RTVSPropertyOp30
 70
     1
102
RTVSPropertyOp31
 70
     1
102
RTVSPropertyOp32
 70
     1
102
RTVSPropertyOp33
 70
     1
102
RTVSPropertyOp34
 70
     1
102
RTVSPropertyOp35
 70
     1
102
RTVSPropertyOp36
 70
     1
102
RTVSPropertyOp37
 70
     1
102
RTVSPropertyOp38
 70
     1
102
RTVSPropertyOp39
 70
     1
102
RTVSPropertyOp40
 70
     1
102
RTVSPropertyOp41
 70
     1
102
RTVSPropertyOp42
 70
     1
102
RTVSPropertyOp43
 70
     1
102
RTVSPropertyOp44
 70
     1
102
RTVSPropertyOp45
 70
     1
102
RTVSPropertyOp46
 70
     1
102
RTVSPropertyOp47
 70
     1
102
RTVSPropertyOp48
 70
     1
102
RTVSPropertyOp49
 70
     1
102
RTVSPropertyOp50
 70
     1
102
RTVSPropertyOp51
 70
     0
102
RTVSPropertyOp52
 70
     0
102
RTVSPropertyOp53
 70
     1
102
RTVSPropertyOp54
 70
     1
102
RTVSPropertyOp55
 70
     1
102
RTVSPropertyOp56
 70
     1
102
RTVSPropertyOp57
 70
     1
102
RTVSPropertyOp58
 70
     1
102
RTVSPropertyOp59
 70
     1
102
RTVSPropertyOp60
 70
     1
102
RTVSPropertyOp61
 70
     1
102
RTVSPropertyOp62
 70
     1
  0
XRECORD
  5
A7C
102
{ACAD_REACTORS
330
A7B
102
}
330
A7B
100
AcDbXrecord
280
     1
102
RTVSPost2010Prop28
280
     0
102
RTVSPost2010PropOp28
 70
     1
102
RTVSPost2010Prop29
280
     1
102
RTVSPost2010PropOp29
 70
     1
102
RTVSPost2010Prop30
280
     1
102
RTVSPost2010PropOp30
 70
     1
102
RTVSPost2010Prop31
280
     0
102
RTVSPost2010PropOp31
 70
     1
102
RTVSPost2010Prop32
280
     0
102
RTVSPost2010PropOp32
 70
     1
102
RTVSPost2010Prop33
280
     0
102
RTVSPost2010PropOp33
 70
     1
102
RTVSPost2010Prop34
280
     0
102
RTVSPost2010PropOp34
 70
     1
102
RTVSPost2010Prop35
280
     0
102
RTVSPost2010PropOp35
 70
     1
102
RTVSPost2010Prop36
280
     0
102
RTVSPost2010PropOp36
 70
     1
102
RTVSPost2010Prop37
 90
       50
102
RTVSPost2010PropOp37
 70
     1
102
RTVSPost2010Prop38
140
0.0
102
RTVSPost2010PropOp38
 70
     1
102
RTVSPost2010Prop39
140
1.0
102
RTVSPost2010PropOp39
 70
     1
102
RTVSPost2010Prop40
 90
        0
102
RTVSPost2010PropOp40
 70
     1
102
RTVSPost2010Prop41ColorIndex
 90
       18
102
RTVSPost2010Prop41ColorRGB
 90
        0
102
RTVSPost2010PropOp41
 70
     1
102
RTVSPost2010Prop42
 90
       50
102
RTVSPost2010PropOp42
 70
     1
102
RTVSPost2010Prop43
 90
        3
102
RTVSPost2010PropOp43
 70
     1
102
RTVSPost2010Prop44ColorIndex
 90
        5
102
RTVSPost2010Prop44ColorRGB
 90
      255
102
RTVSPost2010PropOp44
 70
     1
102
RTVSPost2010Prop45
280
     0
102
RTVSPost2010PropOp45
 70
     1
102
RTVSPost2010Prop46
 90
       50
102
RTVSPost2010PropOp46
 70
     1
102
RTVSPost2010Prop47
 90
       50
102
RTVSPost2010PropOp47
 70
     1
102
RTVSPost2010Prop48
 90
       50
102
RTVSPost2010PropOp48
 70
     1
102
RTVSPost2010Prop49
280
     0
102
RTVSPost2010PropOp49
 70
     1
102
RTVSPost2010Prop50
 90
       50
102
RTVSPost2010PropOp50
 70
     1
102
RTVSPost2010Prop51ColorIndex
 90
      256
102
RTVSPost2010Prop51ColorRGB
 90
-16777216
102
RTVSPost2010PropOp51
 70
     0
102
RTVSPost2010Prop52
140
1.0
102
RTVSPost2010PropOp52
 70
     0
102
RTVSPost2010Prop53
 90
        2
102
RTVSPost2010PropOp53
 70
     1
102
RTVSPost2010Prop54
  1
strokes_ogs.tif
102
RTVSPost2010PropOp54
 70
     1
102
RTVSPost2010Prop55
280
     0
102
RTVSPost2010PropOp55
 70
     1
102
RTVSPost2010Prop56
140
1.0
102
RTVSPost2010PropOp56
 70
     1
102
RTVSPost2010Prop57
140
1.0
102
RTVSPost2010PropOp57
 70
     1
102
RTVSPropertyOp0
 70
     1
102
RTVSPropertyOp1
 70
     1
102
RTVSPropertyOp2
 70
     1
102
RTVSPropertyOp3
 70
     1
102
RTVSPropertyOp4
 70
     1
102
RTVSPropertyOp5
 70
     1
102
RTVSPropertyOp6
 70
     1
102
RTVSPropertyOp7
 70
     1
102
RTVSPropertyOp8
 70
     1
102
RTVSPropertyOp9
 70
     1
102
RTVSPropertyOp10
 70
     1
102
RTVSPropertyOp11
 70
     1
102
RTVSPropertyOp12
 70
     1
102
RTVSPropertyOp13
 70
     1
102
RTVSPropertyOp14
 70
     1
102
RTVSPropertyOp15
 70
     1
102
RTVSPropertyOp16
 70
     1
102
RTVSPropertyOp17
 70
     1
102
RTVSPropertyOp18
 70
     1
102
RTVSPropertyOp19
 70
     1
102
RTVSPropertyOp20
 70
     1
102
RTVSPropertyOp21
 70
     1
102
RTVSPropertyOp22
 70
     1
102
RTVSPropertyOp23
 70
     1
102
RTVSPropertyOp24
 70
     1
102
RTVSPropertyOp25
 70
     1
102
RTVSPropertyOp26
 70
     1
102
RTVSPropertyOp27
 70
     1
102
RTVSPropertyOp28
 70
     1
102
RTVSPropertyOp29
 70
     1
102
RTVSPropertyOp30
 70
     1
102
RTVSPropertyOp31
 70
     1
102
RTVSPropertyOp32
 70
     1
102
RTVSPropertyOp33
 70
     1
102
RTVSPropertyOp34
 70
     1
102
RTVSPropertyOp35
 70
     1
102
RTVSPropertyOp36
 70
     1
102
RTVSPropertyOp37
 70
     1
102
RTVSPropertyOp38
 70
     1
102
RTVSPropertyOp39
 70
     1
102
RTVSPropertyOp40
 70
     1
102
RTVSPropertyOp41
 70
     1
102
RTVSPropertyOp42
 70
     1
102
RTVSPropertyOp43
 70
     1
102
RTVSPropertyOp44
 70
     1
102
RTVSPropertyOp45
 70
     1
102
RTVSPropertyOp46
 70
     1
102
RTVSPropertyOp47
 70
     1
102
RTVSPropertyOp48
 70
     1
102
RTVSPropertyOp49
 70
     1
102
RTVSPropertyOp50
 70
     1
102
RTVSPropertyOp51
 70
     0
102
RTVSPropertyOp52
 70
     0
102
RTVSPropertyOp53
 70
     1
102
RTVSPropertyOp54
 70
     1
102
RTVSPropertyOp55
 70
     1
102
RTVSPropertyOp56
 70
     1
102
RTVSPropertyOp57
 70
     1
102
RTVSPropertyOp58
 70
     1
102
RTVSPropertyOp59
 70
     1
102
RTVSPropertyOp60
 70
     1
102
RTVSPropertyOp61
 70
     1
102
RTVSPropertyOp62
 70
     1
  0
XRECORD
  5
A64
102
{ACAD_REACTORS
330
A63
102
}
330
A63
100
AcDbXrecord
280
     1
102
RTVSPost2010Prop28
280
     0
102
RTVSPost2010PropOp28
 70
     1
102
RTVSPost2010Prop29
280
     1
102
RTVSPost2010PropOp29
 70
     1
102
RTVSPost2010Prop30
280
     1
102
RTVSPost2010PropOp30
 70
     1
102
RTVSPost2010Prop31
280
     0
102
RTVSPost2010PropOp31
 70
     1
102
RTVSPost2010Prop32
280
     0
102
RTVSPost2010PropOp32
 70
     1
102
RTVSPost2010Prop33
280
     0
102
RTVSPost2010PropOp33
 70
     1
102
RTVSPost2010Prop34
280
     0
102
RTVSPost2010PropOp34
 70
     1
102
RTVSPost2010Prop35
280
     0
102
RTVSPost2010PropOp35
 70
     1
102
RTVSPost2010Prop36
280
     0
102
RTVSPost2010PropOp36
 70
     1
102
RTVSPost2010Prop37
 90
       50
102
RTVSPost2010PropOp37
 70
     1
102
RTVSPost2010Prop38
140
0.0
102
RTVSPost2010PropOp38
 70
     1
102
RTVSPost2010Prop39
140
1.0
102
RTVSPost2010PropOp39
 70
     1
102
RTVSPost2010Prop40
 90
        0
102
RTVSPost2010PropOp40
 70
     1
102
RTVSPost2010Prop41ColorIndex
 90
       18
102
RTVSPost2010Prop41ColorRGB
 90
        0
102
RTVSPost2010PropOp41
 70
     1
102
RTVSPost2010Prop42
 90
       50
102
RTVSPost2010PropOp42
 70
     1
102
RTVSPost2010Prop43
 90
        3
102
RTVSPost2010PropOp43
 70
     1
102
RTVSPost2010Prop44ColorIndex
 90
        5
102
RTVSPost2010Prop44ColorRGB
 90
      255
102
RTVSPost2010PropOp44
 70
     1
102
RTVSPost2010Prop45
280
     0
102
RTVSPost2010PropOp45
 70
     1
102
RTVSPost2010Prop46
 90
       50
102
RTVSPost2010PropOp46
 70
     1
102
RTVSPost2010Prop47
 90
       50
102
RTVSPost2010PropOp47
 70
     1
102
RTVSPost2010Prop48
 90
       50
102
RTVSPost2010PropOp48
 70
     1
102
RTVSPost2010Prop49
280
     0
102
RTVSPost2010PropOp49
 70
     1
102
RTVSPost2010Prop50
 90
       50
102
RTVSPost2010PropOp50
 70
     1
102
RTVSPost2010Prop51ColorIndex
 90
      256
102
RTVSPost2010Prop51ColorRGB
 90
-16777216
102
RTVSPost2010PropOp51
 70
     0
102
RTVSPost2010Prop52
140
1.0
102
RTVSPost2010PropOp52
 70
     0
102
RTVSPost2010Prop53
 90
        2
102
RTVSPost2010PropOp53
 70
     1
102
RTVSPost2010Prop54
  1
strokes_ogs.tif
102
RTVSPost2010PropOp54
 70
     1
102
RTVSPost2010Prop55
280
     0
102
RTVSPost2010PropOp55
 70
     1
102
RTVSPost2010Prop56
140
1.0
102
RTVSPost2010PropOp56
 70
     1
102
RTVSPost2010Prop57
140
1.0
102
RTVSPost2010PropOp57
 70
     1
102
RTVSPropertyOp0
 70
     1
102
RTVSPropertyOp1
 70
     1
102
RTVSPropertyOp2
 70
     1
102
RTVSPropertyOp3
 70
     1
102
RTVSPropertyOp4
 70
     1
102
RTVSPropertyOp5
 70
     1
102
RTVSPropertyOp6
 70
     1
102
RTVSPropertyOp7
 70
     1
102
RTVSPropertyOp8
 70
     1
102
RTVSPropertyOp9
 70
     1
102
RTVSPropertyOp10
 70
     1
102
RTVSPropertyOp11
 70
     1
102
RTVSPropertyOp12
 70
     1
102
RTVSPropertyOp13
 70
     1
102
RTVSPropertyOp14
 70
     1
102
RTVSPropertyOp15
 70
     1
102
RTVSPropertyOp16
 70
     1
102
RTVSPropertyOp17
 70
     1
102
RTVSPropertyOp18
 70
     1
102
RTVSPropertyOp19
 70
     1
102
RTVSPropertyOp20
 70
     1
102
RTVSPropertyOp21
 70
     1
102
RTVSPropertyOp22
 70
     1
102
RTVSPropertyOp23
 70
     1
102
RTVSPropertyOp24
 70
     1
102
RTVSPropertyOp25
 70
     1
102
RTVSPropertyOp26
 70
     1
102
RTVSPropertyOp27
 70
     1
102
RTVSPropertyOp28
 70
     1
102
RTVSPropertyOp29
 70
     1
102
RTVSPropertyOp30
 70
     1
102
RTVSPropertyOp31
 70
     1
102
RTVSPropertyOp32
 70
     1
102
RTVSPropertyOp33
 70
     1
102
RTVSPropertyOp34
 70
     1
102
RTVSPropertyOp35
 70
     1
102
RTVSPropertyOp36
 70
     1
102
RTVSPropertyOp37
 70
     1
102
RTVSPropertyOp38
 70
     1
102
RTVSPropertyOp39
 70
     1
102
RTVSPropertyOp40
 70
     1
102
RTVSPropertyOp41
 70
     1
102
RTVSPropertyOp42
 70
     1
102
RTVSPropertyOp43
 70
     1
102
RTVSPropertyOp44
 70
     1
102
RTVSPropertyOp45
 70
     1
102
RTVSPropertyOp46
 70
     1
102
RTVSPropertyOp47
 70
     1
102
RTVSPropertyOp48
 70
     1
102
RTVSPropertyOp49
 70
     1
102
RTVSPropertyOp50
 70
     1
102
RTVSPropertyOp51
 70
     0
102
RTVSPropertyOp52
 70
     0
102
RTVSPropertyOp53
 70
     1
102
RTVSPropertyOp54
 70
     1
102
RTVSPropertyOp55
 70
     1
102
RTVSPropertyOp56
 70
     1
102
RTVSPropertyOp57
 70
     1
102
RTVSPropertyOp58
 70
     1
102
RTVSPropertyOp59
 70
     1
102
RTVSPropertyOp60
 70
     1
102
RTVSPropertyOp61
 70
     1
102
RTVSPropertyOp62
 70
     1
  0
XRECORD
  5
A76
102
{ACAD_REACTORS
330
A75
102
}
330
A75
100
AcDbXrecord
280
     1
102
RTVSPost2010Prop28
280
     0
102
RTVSPost2010PropOp28
 70
     1
102
RTVSPost2010Prop29
280
     1
102
RTVSPost2010PropOp29
 70
     1
102
RTVSPost2010Prop30
280
     1
102
RTVSPost2010PropOp30
 70
     1
102
RTVSPost2010Prop31
280
     0
102
RTVSPost2010PropOp31
 70
     1
102
RTVSPost2010Prop32
280
     0
102
RTVSPost2010PropOp32
 70
     1
102
RTVSPost2010Prop33
280
     0
102
RTVSPost2010PropOp33
 70
     1
102
RTVSPost2010Prop34
280
     0
102
RTVSPost2010PropOp34
 70
     1
102
RTVSPost2010Prop35
280
     0
102
RTVSPost2010PropOp35
 70
     1
102
RTVSPost2010Prop36
280
     0
102
RTVSPost2010PropOp36
 70
     1
102
RTVSPost2010Prop37
 90
       50
102
RTVSPost2010PropOp37
 70
     1
102
RTVSPost2010Prop38
140
0.0
102
RTVSPost2010PropOp38
 70
     1
102
RTVSPost2010Prop39
140
1.0
102
RTVSPost2010PropOp39
 70
     1
102
RTVSPost2010Prop40
 90
        0
102
RTVSPost2010PropOp40
 70
     1
102
RTVSPost2010Prop41ColorIndex
 90
       18
102
RTVSPost2010Prop41ColorRGB
 90
        0
102
RTVSPost2010PropOp41
 70
     1
102
RTVSPost2010Prop42
 90
       50
102
RTVSPost2010PropOp42
 70
     1
102
RTVSPost2010Prop43
 90
        3
102
RTVSPost2010PropOp43
 70
     1
102
RTVSPost2010Prop44ColorIndex
 90
        5
102
RTVSPost2010Prop44ColorRGB
 90
      255
102
RTVSPost2010PropOp44
 70
     1
102
RTVSPost2010Prop45
280
     0
102
RTVSPost2010PropOp45
 70
     1
102
RTVSPost2010Prop46
 90
       50
102
RTVSPost2010PropOp46
 70
     1
102
RTVSPost2010Prop47
 90
       50
102
RTVSPost2010PropOp47
 70
     1
102
RTVSPost2010Prop48
 90
       50
102
RTVSPost2010PropOp48
 70
     1
102
RTVSPost2010Prop49
280
     0
102
RTVSPost2010PropOp49
 70
     1
102
RTVSPost2010Prop50
 90
       50
102
RTVSPost2010PropOp50
 70
     1
102
RTVSPost2010Prop51ColorIndex
 90
      256
102
RTVSPost2010Prop51ColorRGB
 90
-16777216
102
RTVSPost2010PropOp51
 70
     0
102
RTVSPost2010Prop52
140
1.0
102
RTVSPost2010PropOp52
 70
     0
102
RTVSPost2010Prop53
 90
        2
102
RTVSPost2010PropOp53
 70
     1
102
RTVSPost2010Prop54
  1
strokes_ogs.tif
102
RTVSPost2010PropOp54
 70
     1
102
RTVSPost2010Prop55
280
     0
102
RTVSPost2010PropOp55
 70
     1
102
RTVSPost2010Prop56
140
1.0
102
RTVSPost2010PropOp56
 70
     1
102
RTVSPost2010Prop57
140
1.0
102
RTVSPost2010PropOp57
 70
     1
102
RTVSPropertyOp0
 70
     1
102
RTVSPropertyOp1
 70
     1
102
RTVSPropertyOp2
 70
     1
102
RTVSPropertyOp3
 70
     1
102
RTVSPropertyOp4
 70
     1
102
RTVSPropertyOp5
 70
     1
102
RTVSPropertyOp6
 70
     1
102
RTVSPropertyOp7
 70
     1
102
RTVSPropertyOp8
 70
     1
102
RTVSPropertyOp9
 70
     1
102
RTVSPropertyOp10
 70
     1
102
RTVSPropertyOp11
 70
     1
102
RTVSPropertyOp12
 70
     1
102
RTVSPropertyOp13
 70
     1
102
RTVSPropertyOp14
 70
     1
102
RTVSPropertyOp15
 70
     1
102
RTVSPropertyOp16
 70
     1
102
RTVSPropertyOp17
 70
     1
102
RTVSPropertyOp18
 70
     1
102
RTVSPropertyOp19
 70
     1
102
RTVSPropertyOp20
 70
     1
102
RTVSPropertyOp21
 70
     1
102
RTVSPropertyOp22
 70
     1
102
RTVSPropertyOp23
 70
     1
102
RTVSPropertyOp24
 70
     1
102
RTVSPropertyOp25
 70
     1
102
RTVSPropertyOp26
 70
     1
102
RTVSPropertyOp27
 70
     1
102
RTVSPropertyOp28
 70
     1
102
RTVSPropertyOp29
 70
     1
102
RTVSPropertyOp30
 70
     1
102
RTVSPropertyOp31
 70
     1
102
RTVSPropertyOp32
 70
     1
102
RTVSPropertyOp33
 70
     1
102
RTVSPropertyOp34
 70
     1
102
RTVSPropertyOp35
 70
     1
102
RTVSPropertyOp36
 70
     1
102
RTVSPropertyOp37
 70
     1
102
RTVSPropertyOp38
 70
     1
102
RTVSPropertyOp39
 70
     1
102
RTVSPropertyOp40
 70
     1
102
RTVSPropertyOp41
 70
     1
102
RTVSPropertyOp42
 70
     1
102
RTVSPropertyOp43
 70
     1
102
RTVSPropertyOp44
 70
     1
102
RTVSPropertyOp45
 70
     1
102
RTVSPropertyOp46
 70
     1
102
RTVSPropertyOp47
 70
     1
102
RTVSPropertyOp48
 70
     1
102
RTVSPropertyOp49
 70
     1
102
RTVSPropertyOp50
 70
     1
102
RTVSPropertyOp51
 70
     0
102
RTVSPropertyOp52
 70
     0
102
RTVSPropertyOp53
 70
     1
102
RTVSPropertyOp54
 70
     1
102
RTVSPropertyOp55
 70
     1
102
RTVSPropertyOp56
 70
     1
102
RTVSPropertyOp57
 70
     1
102
RTVSPropertyOp58
 70
     1
102
RTVSPropertyOp59
 70
     1
102
RTVSPropertyOp60
 70
     1
102
RTVSPropertyOp61
 70
     1
102
RTVSPropertyOp62
 70
     1
  0
XRECORD
  5
A7E
102
{ACAD_REACTORS
330
A7D
102
}
330
A7D
100
AcDbXrecord
280
     1
102
RTVSPost2010Prop28
280
     0
102
RTVSPost2010PropOp28
 70
     1
102
RTVSPost2010Prop29
280
     1
102
RTVSPost2010PropOp29
 70
     1
102
RTVSPost2010Prop30
280
     1
102
RTVSPost2010PropOp30
 70
     1
102
RTVSPost2010Prop31
280
     0
102
RTVSPost2010PropOp31
 70
     1
102
RTVSPost2010Prop32
280
     0
102
RTVSPost2010PropOp32
 70
     1
102
RTVSPost2010Prop33
280
     0
102
RTVSPost2010PropOp33
 70
     1
102
RTVSPost2010Prop34
280
     0
102
RTVSPost2010PropOp34
 70
     1
102
RTVSPost2010Prop35
280
     0
102
RTVSPost2010PropOp35
 70
     1
102
RTVSPost2010Prop36
280
     0
102
RTVSPost2010PropOp36
 70
     1
102
RTVSPost2010Prop37
 90
       50
102
RTVSPost2010PropOp37
 70
     1
102
RTVSPost2010Prop38
140
0.0
102
RTVSPost2010PropOp38
 70
     1
102
RTVSPost2010Prop39
140
1.0
102
RTVSPost2010PropOp39
 70
     1
102
RTVSPost2010Prop40
 90
        0
102
RTVSPost2010PropOp40
 70
     1
102
RTVSPost2010Prop41ColorIndex
 90
       18
102
RTVSPost2010Prop41ColorRGB
 90
        0
102
RTVSPost2010PropOp41
 70
     1
102
RTVSPost2010Prop42
 90
       50
102
RTVSPost2010PropOp42
 70
     1
102
RTVSPost2010Prop43
 90
        3
102
RTVSPost2010PropOp43
 70
     1
102
RTVSPost2010Prop44ColorIndex
 90
        5
102
RTVSPost2010Prop44ColorRGB
 90
      255
102
RTVSPost2010PropOp44
 70
     1
102
RTVSPost2010Prop45
280
     0
102
RTVSPost2010PropOp45
 70
     1
102
RTVSPost2010Prop46
 90
       50
102
RTVSPost2010PropOp46
 70
     1
102
RTVSPost2010Prop47
 90
       50
102
RTVSPost2010PropOp47
 70
     1
102
RTVSPost2010Prop48
 90
       50
102
RTVSPost2010PropOp48
 70
     1
102
RTVSPost2010Prop49
280
     0
102
RTVSPost2010PropOp49
 70
     1
102
RTVSPost2010Prop50
 90
       50
102
RTVSPost2010PropOp50
 70
     1
102
RTVSPost2010Prop51ColorIndex
 90
      256
102
RTVSPost2010Prop51ColorRGB
 90
-16777216
102
RTVSPost2010PropOp51
 70
     0
102
RTVSPost2010Prop52
140
1.0
102
RTVSPost2010PropOp52
 70
     0
102
RTVSPost2010Prop53
 90
        2
102
RTVSPost2010PropOp53
 70
     1
102
RTVSPost2010Prop54
  1
strokes_ogs.tif
102
RTVSPost2010PropOp54
 70
     1
102
RTVSPost2010Prop55
280
     0
102
RTVSPost2010PropOp55
 70
     1
102
RTVSPost2010Prop56
140
1.0
102
RTVSPost2010PropOp56
 70
     1
102
RTVSPost2010Prop57
140
1.0
102
RTVSPost2010PropOp57
 70
     1
102
RTVSPropertyOp0
 70
     1
102
RTVSPropertyOp1
 70
     1
102
RTVSPropertyOp2
 70
     1
102
RTVSPropertyOp3
 70
     1
102
RTVSPropertyOp4
 70
     1
102
RTVSPropertyOp5
 70
     1
102
RTVSPropertyOp6
 70
     1
102
RTVSPropertyOp7
 70
     1
102
RTVSPropertyOp8
 70
     1
102
RTVSPropertyOp9
 70
     1
102
RTVSPropertyOp10
 70
     1
102
RTVSPropertyOp11
 70
     1
102
RTVSPropertyOp12
 70
     1
102
RTVSPropertyOp13
 70
     1
102
RTVSPropertyOp14
 70
     1
102
RTVSPropertyOp15
 70
     1
102
RTVSPropertyOp16
 70
     1
102
RTVSPropertyOp17
 70
     1
102
RTVSPropertyOp18
 70
     1
102
RTVSPropertyOp19
 70
     1
102
RTVSPropertyOp20
 70
     1
102
RTVSPropertyOp21
 70
     1
102
RTVSPropertyOp22
 70
     1
102
RTVSPropertyOp23
 70
     1
102
RTVSPropertyOp24
 70
     1
102
RTVSPropertyOp25
 70
     1
102
RTVSPropertyOp26
 70
     1
102
RTVSPropertyOp27
 70
     1
102
RTVSPropertyOp28
 70
     1
102
RTVSPropertyOp29
 70
     1
102
RTVSPropertyOp30
 70
     1
102
RTVSPropertyOp31
 70
     1
102
RTVSPropertyOp32
 70
     1
102
RTVSPropertyOp33
 70
     1
102
RTVSPropertyOp34
 70
     1
102
RTVSPropertyOp35
 70
     1
102
RTVSPropertyOp36
 70
     1
102
RTVSPropertyOp37
 70
     1
102
RTVSPropertyOp38
 70
     1
102
RTVSPropertyOp39
 70
     1
102
RTVSPropertyOp40
 70
     1
102
RTVSPropertyOp41
 70
     1
102
RTVSPropertyOp42
 70
     1
102
RTVSPropertyOp43
 70
     1
102
RTVSPropertyOp44
 70
     1
102
RTVSPropertyOp45
 70
     1
102
RTVSPropertyOp46
 70
     1
102
RTVSPropertyOp47
 70
     1
102
RTVSPropertyOp48
 70
     1
102
RTVSPropertyOp49
 70
     1
102
RTVSPropertyOp50
 70
     1
102
RTVSPropertyOp51
 70
     0
102
RTVSPropertyOp52
 70
     0
102
RTVSPropertyOp53
 70
     1
102
RTVSPropertyOp54
 70
     1
102
RTVSPropertyOp55
 70
     1
102
RTVSPropertyOp56
 70
     1
102
RTVSPropertyOp57
 70
     1
102
RTVSPropertyOp58
 70
     1
102
RTVSPropertyOp59
 70
     1
102
RTVSPropertyOp60
 70
     1
102
RTVSPropertyOp61
 70
     1
102
RTVSPropertyOp62
 70
     1
  0
DICTIONARY
  5
54B
102
{ACAD_REACTORS
330
54A
102
}
330
54A
100
AcDbDictionary
281
     1
  3
PH_GRPMEMBERS
350
54C
  0
PH_GROUP
  5
54D
102
{ACAD_REACTORS
330
54A
102
}
330
54A
  0
PH_GROUP
  5
54C
102
{ACAD_REACTORS
330
54B
102
}
330
54B
  0
ENDSEC
  0
EOF
