  0
SECTION
  2
HEADER
  9
$ACADVER
  1
AC1015
  9
$ACADMAINTVER
 70
    20
  9
$DWGCODEPAGE
  3
ANSI_1252
  9
$INSBASE
 10
0.0
 20
0.0
 30
0.0
  9
$EXTMIN
 10
280.3469278142072
 20
139.014617349611
 30
-0.0000000000000058
  9
$EXTMAX
 10
559.047413703355
 20
335.7189163253792
 30
0.0000000000000104
  9
$LIMMIN
 10
0.0
 20
0.0
  9
$LIMMAX
 10
420.0
 20
297.0
  9
$ORTHOMODE
 70
     1
  9
$REGENMODE
 70
     1
  9
$FILLMODE
 70
     1
  9
$QTEXTMODE
 70
     0
  9
$MIRRTEXT
 70
     1
  9
$LTSCALE
 40
1.0
  9
$ATTMODE
 70
     1
  9
$TEXTSIZE
 40
2.5
  9
$TRACEWID
 40
1.0
  9
$TEXTSTYLE
  7
STANDARD
  9
$CLAYER
  8
0
  9
$CELTYPE
  6
ACAD_ISO05W100
  9
$CECOLOR
 62
     3
  9
$CELTSCALE
 40
1.0
  9
$DISPSILH
 70
     0
  9
$DIMSCALE
 40
1.0
  9
$DIMASZ
 40
2.5
  9
$DIMEXO
 40
0.625
  9
$DIMDLI
 40
3.75
  9
$DIMRND
 40
0.0
  9
$DIMDLE
 40
0.0
  9
$DIMEXE
 40
1.25
  9
$DIMTP
 40
0.0
  9
$DIMTM
 40
0.0
  9
$DIMTXT
 40
2.5
  9
$DIMCEN
 40
2.5
  9
$DIMTSZ
 40
0.0
  9
$DIMTOL
 70
     0
  9
$DIMLIM
 70
     0
  9
$DIMTIH
 70
     0
  9
$DIMTOH
 70
     0
  9
$DIMSE1
 70
     0
  9
$DIMSE2
 70
     0
  9
$DIMTAD
 70
     1
  9
$DIMZIN
 70
     0
  9
$DIMBLK
  1

  9
$DIMASO
 70
     1
  9
$DIMSHO
 70
     1
  9
$DIMPOST
  1

  9
$DIMAPOST
  1

  9
$DIMALT
 70
     0
  9
$DIMALTD
 70
     4
  9
$DIMALTF
 40
0.0394
  9
$DIMLFAC
 40
1.0
  9
$DIMTOFL
 70
     1
  9
$DIMTVP
 40
0.0
  9
$DIMTIX
 70
     0
  9
$DIMSOXD
 70
     0
  9
$DIMSAH
 70
     0
  9
$DIMBLK1
  1

  9
$DIMBLK2
  1

  9
$DIMSTYLE
  2
STANDARD
  9
$DIMCLRD
 70
     0
  9
$DIMCLRE
 70
     0
  9
$DIMCLRT
 70
     0
  9
$DIMTFAC
 40
1.0
  9
$DIMGAP
 40
0.625
  9
$DIMJUST
 70
     0
  9
$DIMSD1
 70
     0
  9
$DIMSD2
 70
     0
  9
$DIMTOLJ
 70
     1
  9
$DIMTZIN
 70
     0
  9
$DIMALTZ
 70
     0
  9
$DIMALTTZ
 70
     0
  9
$DIMUPT
 70
     0
  9
$DIMDEC
 70
     4
  9
$DIMTDEC
 70
     4
  9
$DIMALTU
 70
     8
  9
$DIMALTTD
 70
     4
  9
$DIMTXSTY
  7
STANDARD
  9
$DIMAUNIT
 70
     0
  9
$DIMADEC
 70
     0
  9
$DIMALTRND
 40
0.0
  9
$DIMAZIN
 70
     0
  9
$DIMDSEP
 70
    46
  9
$DIMATFIT
 70
     3
  9
$DIMFRAC
 70
     0
  9
$DIMLDRBLK
  1

  9
$DIMLUNIT
 70
     6
  9
$DIMLWD
 70
    -2
  9
$DIMLWE
 70
    -2
  9
$DIMTMOVE
 70
     0
  9
$LUNITS
 70
     2
  9
$LUPREC
 70
     4
  9
$SKETCHINC
 40
1.0
  9
$FILLETRAD
 40
0.0
  9
$AUNITS
 70
     0
  9
$AUPREC
 70
     0
  9
$MENU
  1
.
  9
$ELEVATION
 40
0.0
  9
$PELEVATION
 40
0.0
  9
$THICKNESS
 40
0.0
  9
$LIMCHECK
 70
     0
  9
$CHAMFERA
 40
10.0
  9
$CHAMFERB
 40
10.0
  9
$CHAMFERC
 40
20.0
  9
$CHAMFERD
 40
0.0
  9
$SKPOLY
 70
     0
  9
$TDCREATE
 40
2451306.623786458
  9
$TDUCREATE
 40
2451306.540453125
  9
$TDUPDATE
 40
2456784.389408657
  9
$TDUUPDATE
 40
2456784.306075324
  9
$TDINDWG
 40
0.0862035417
  9
$TDUSRTIMER
 40
0.0862035417
  9
$USRTIMER
 70
     1
  9
$ANGBASE
 50
0.0
  9
$ANGDIR
 70
     0
  9
$PDMODE
 70
    35
  9
$PDSIZE
 40
-2.0
  9
$PLINEWID
 40
0.0
  9
$SPLFRAME
 70
     0
  9
$SPLINETYPE
 70
     6
  9
$SPLINESEGS
 70
     8
  9
$HANDSEED
  5
2C75
  9
$SURFTAB1
 70
     6
  9
$SURFTAB2
 70
     6
  9
$SURFTYPE
 70
     6
  9
$SURFU
 70
     6
  9
$SURFV
 70
     6
  9
$UCSBASE
  2

  9
$UCSNAME
  2

  9
$UCSORG
 10
0.0
 20
0.0
 30
0.0
  9
$UCSXDIR
 10
1.0
 20
0.0
 30
0.0
  9
$UCSYDIR
 10
0.0
 20
1.0
 30
0.0
  9
$UCSORTHOREF
  2

  9
$UCSORTHOVIEW
 70
     0
  9
$UCSORGTOP
 10
0.0
 20
0.0
 30
0.0
  9
$UCSORGBOTTOM
 10
0.0
 20
0.0
 30
0.0
  9
$UCSORGLEFT
 10
0.0
 20
0.0
 30
0.0
  9
$UCSORGRIGHT
 10
0.0
 20
0.0
 30
0.0
  9
$UCSORGFRONT
 10
0.0
 20
0.0
 30
0.0
  9
$UCSORGBACK
 10
0.0
 20
0.0
 30
0.0
  9
$PUCSBASE
  2

  9
$PUCSNAME
  2

  9
$PUCSORG
 10
0.0
 20
0.0
 30
0.0
  9
$PUCSXDIR
 10
1.0
 20
0.0
 30
0.0
  9
$PUCSYDIR
 10
0.0
 20
1.0
 30
0.0
  9
$PUCSORTHOREF
  2

  9
$PUCSORTHOVIEW
 70
     0
  9
$PUCSORGTOP
 10
0.0
 20
0.0
 30
0.0
  9
$PUCSORGBOTTOM
 10
0.0
 20
0.0
 30
0.0
  9
$PUCSORGLEFT
 10
0.0
 20
0.0
 30
0.0
  9
$PUCSORGRIGHT
 10
0.0
 20
0.0
 30
0.0
  9
$PUCSORGFRONT
 10
0.0
 20
0.0
 30
0.0
  9
$PUCSORGBACK
 10
0.0
 20
0.0
 30
0.0
  9
$USERI1
 70
     0
  9
$USERI2
 70
     0
  9
$USERI3
 70
     0
  9
$USERI4
 70
     0
  9
$USERI5
 70
     0
  9
$USERR1
 40
0.0
  9
$USERR2
 40
0.0
  9
$USERR3
 40
0.0
  9
$USERR4
 40
0.0
  9
$USERR5
 40
0.0
  9
$WORLDVIEW
 70
     1
  9
$SHADEDGE
 70
     3
  9
$SHADEDIF
 70
    70
  9
$TILEMODE
 70
     1
  9
$MAXACTVP
 70
    48
  9
$PINSBASE
 10
0.0
 20
0.0
 30
0.0
  9
$PLIMCHECK
 70
     0
  9
$PEXTMIN
 10
1.000000000000000E+20
 20
1.000000000000000E+20
 30
1.000000000000000E+20
  9
$PEXTMAX
 10
-1.000000000000000E+20
 20
-1.000000000000000E+20
 30
-1.000000000000000E+20
  9
$PLIMMIN
 10
0.0
 20
0.0
  9
$PLIMMAX
 10
420.0
 20
297.0
  9
$UNITMODE
 70
     0
  9
$VISRETAIN
 70
     1
  9
$PLINEGEN
 70
     0
  9
$PSLTSCALE
 70
     1
  9
$TREEDEPTH
 70
  3020
  9
$CMLSTYLE
  2
STANDARD
  9
$CMLJUST
 70
     0
  9
$CMLSCALE
 40
20.0
  9
$PROXYGRAPHICS
 70
     1
  9
$MEASUREMENT
 70
     1
  9
$CELWEIGHT
370
    70
  9
$ENDCAPS
280
     0
  9
$JOINSTYLE
280
     0
  9
$LWDISPLAY
290
     0
  9
$INSUNITS
 70
     0
  9
$HYPERLINKBASE
  1

  9
$STYLESHEET
  1
HP_Farbe_Dünn.ctb
  9
$XEDIT
290
     1
  9
$CEPSNTYPE
380
     0
  9
$PSTYLEMODE
290
     1
  9
$FINGERPRINTGUID
  2
{1CFC3053-8BAA-4A16-AA37-A805B1D93D76}
  9
$VERSIONGUID
  2
{424A3896-E9BB-42AC-B201-B8809994429B}
  9
$EXTNAMES
290
     1
  9
$PSVPSCALE
 40
0.0
  9
$OLESTARTUP
290
     0
  0
ENDSEC
  0
SECTION
  2
CLASSES
  0
CLASS
  1
PH_VARS
  2
PhoenixVars
  3
PHOENIX7010
 90
        0
280
     0
281
     0
  0
CLASS
  1
PH_GROUP
  2
PhGroup
  3
PHOENIX7010
 90
        0
280
     0
281
     0
  0
CLASS
  1
ACDBDICTIONARYWDFLT
  2
AcDbDictionaryWithDefault
  3
ObjectDBX Classes
 90
        0
280
     0
281
     0
  0
CLASS
  1
DICTIONARYVAR
  2
AcDbDictionaryVar
  3
ObjectDBX Classes
 90
        0
280
     0
281
     0
  0
CLASS
  1
ACDBPLACEHOLDER
  2
AcDbPlaceHolder
  3
ObjectDBX Classes
 90
        0
280
     0
281
     0
  0
CLASS
  1
LAYOUT
  2
AcDbLayout
  3
ObjectDBX Classes
 90
        0
280
     0
281
     0
  0
CLASS
  1
MATERIAL
  2
AcDbMaterial
  3
ObjectDBX Classes
 90
     1153
280
     0
281
     0
  0
CLASS
  1
VISUALSTYLE
  2
AcDbVisualStyle
  3
ObjectDBX Classes
 90
     4095
280
     0
281
     0
  0
CLASS
  1
TABLESTYLE
  2
AcDbTableStyle
  3
ObjectDBX Classes
 90
     4095
280
     0
281
     0
  0
CLASS
  1
SCALE
  2
AcDbScale
  3
ObjectDBX Classes
 90
     1153
280
     0
281
     0
  0
CLASS
  1
MLEADERSTYLE
  2
AcDbMLeaderStyle
  3
ACDB_MLEADERSTYLE_CLASS
 90
     4095
280
     0
281
     0
  0
CLASS
  1
CELLSTYLEMAP
  2
AcDbCellStyleMap
  3
ObjectDBX Classes
 90
     1152
280
     0
281
     0
  0
CLASS
  1
AEC_REFEDIT_STATUS_TRACKER
  2
AecDbRefEditStatusTracker
  3
AecArchBase60|Product Desc: Autodesk Architectural Desktop 2007 |Company: Autodesk,Inc. |WEB Address: www.autodesk.com
 90
    32897
280
     0
281
     0
  0
CLASS
  1
NPOCOLLECTION
  2
AcDbImpNonPersistentObjectsCollection
  3
ObjectDBX Classes
 90
    33921
280
     0
281
     0
  0
CLASS
  1
PDFDEFINITION
  2
AcDbPdfDefinition
  3
ObjectDBX Classes
 90
     1153
280
     0
281
     0
  0
CLASS
  1
PDFUNDERLAY
  2
AcDbPdfReference
  3
ObjectDBX Classes
 90
     1153
280
     0
281
     1
  0
ENDSEC
  0
SECTION
  2
TABLES
  0
TABLE
  2
VPORT
  5
8
102
{ACAD_XDICTIONARY
360
265C
102
}
330
0
100
AcDbSymbolTable
 70
     1
  0
VPORT
  5
4D7
330
8
100
AcDbSymbolTableRecord
100
AcDbViewportTableRecord
  2
*Active
 70
     0
 10
0.0
 20
0.0
 11
1.0
 21
1.0
 12
419.6971707587811
 22
237.3667668374951
 13
0.0
 23
0.0
 14
10.0
 24
10.0
 15
10.0
 25
10.0
 16
0.0
 26
0.0
 36
1.0
 17
0.0
 27
0.0
 37
0.0
 40
198.0703010519887
 41
1.746234067207415
 42
50.0
 43
0.0
 44
0.0
 50
0.0
 51
0.0
 71
     0
 72
   100
 73
     1
 74
     0
 75
     0
 76
     0
 77
     0
 78
     0
281
     0
 65
     1
110
0.0
120
0.0
130
0.0
111
1.0
121
0.0
131
0.0
112
0.0
122
1.0
132
0.0
 79
     0
146
0.0
  0
ENDTAB
  0
TABLE
  2
LTYPE
  5
5
330
0
100
AcDbSymbolTable
 70
     5
  0
LTYPE
  5
12
330
5
100
AcDbSymbolTableRecord
100
AcDbLinetypeTableRecord
  2
BYBLOCK
 70
     0
  3

 72
    65
 73
     0
 40
0.0
  0
LTYPE
  5
13
330
5
100
AcDbSymbolTableRecord
100
AcDbLinetypeTableRecord
  2
BYLAYER
 70
     0
  3

 72
    65
 73
     0
 40
0.0
  0
LTYPE
  5
14
330
5
100
AcDbSymbolTableRecord
100
AcDbLinetypeTableRecord
  2
CONTINUOUS
 70
     0
  3
Solid line
 72
    65
 73
     0
 40
0.0
  0
LTYPE
  5
28E
330
5
100
AcDbSymbolTableRecord
100
AcDbLinetypeTableRecord
  2
ACAD_ISO04W100
 70
     0
  3
____ . ____ . ____ . ____ . ____ . ____ . ____ 
 72
    65
 73
     4
 40
30.5
 49
24.0
 74
     0
 49
-3.0
 74
     0
 49
0.5
 74
     0
 49
-3.0
 74
     0
  0
LTYPE
  5
4BA
330
5
100
AcDbSymbolTableRecord
100
AcDbLinetypeTableRecord
  2
ACAD_ISO02W100
 70
     0
  3
ISO Strichlinie __ __ __ __ __ __ __ __ __ __ _
 72
    65
 73
     2
 40
15.0
 49
12.0
 74
     0
 49
-3.0
 74
     0
  0
LTYPE
  5
2594
330
5
100
AcDbSymbolTableRecord
100
AcDbLinetypeTableRecord
  2
ACAD_ISO05W100
 70
     0
  3
ISO Lang gestrichelt doppelpunktiert ____ .. __
 72
    65
 73
     6
 40
33.0
 49
24.0
 74
     0
 49
-3.0
 74
     0
 49
0.0
 74
     0
 49
-3.0
 74
     0
 49
0.0
 74
     0
 49
-3.0
 74
     0
  0
ENDTAB
  0
TABLE
  2
LAYER
  5
2
102
{ACAD_XDICTIONARY
360
24C6
102
}
330
0
100
AcDbSymbolTable
 70
     5
  0
LAYER
  5
E
102
{ACAD_XDICTIONARY
360
527
102
}
330
2
100
AcDbSymbolTableRecord
100
AcDbLayerTableRecord
  2
0
 70
     0
 62
     7
  6
CONTINUOUS
370
    -3
390
4CF
  0
LAYER
  5
21
102
{ACAD_XDICTIONARY
360
529
102
}
330
2
100
AcDbSymbolTableRecord
100
AcDbLayerTableRecord
  2
BZA45776
 70
     0
 62
     7
  6
CONTINUOUS
370
    -3
390
4CF
  0
LAYER
  5
38
102
{ACAD_XDICTIONARY
360
52B
102
}
330
2
100
AcDbSymbolTableRecord
100
AcDbLayerTableRecord
  2
30
 70
     0
 62
     7
  6
CONTINUOUS
370
    -3
390
4CF
  0
LAYER
  5
1F0
102
{ACAD_XDICTIONARY
360
52D
102
}
330
2
100
AcDbSymbolTableRecord
100
AcDbLayerTableRecord
  2
PH_HILFSELEMENTE
 70
     0
 62
    -7
  6
CONTINUOUS
370
    -3
390
4CF
  0
LAYER
  5
28F
330
2
100
AcDbSymbolTableRecord
100
AcDbLayerTableRecord
  2
DEFPOINTS
 70
     0
 62
     7
  6
CONTINUOUS
290
     0
370
    -3
390
4CF
  0
ENDTAB
  0
TABLE
  2
STYLE
  5
3
330
0
100
AcDbSymbolTable
 70
     1
  0
STYLE
  5
F
330
3
100
AcDbSymbolTableRecord
100
AcDbTextStyleTableRecord
  2
STANDARD
 70
     0
 40
0.0
 41
1.0
 50
0.0
 71
     0
 42
2.5
  3
isocp.shx
  4

  0
ENDTAB
  0
TABLE
  2
VIEW
  5
6
330
0
100
AcDbSymbolTable
 70
     0
  0
ENDTAB
  0
TABLE
  2
UCS
  5
7
330
0
100
AcDbSymbolTable
 70
     0
  0
ENDTAB
  0
TABLE
  2
APPID
  5
9
330
0
100
AcDbSymbolTable
 70
     7
  0
APPID
  5
10
330
9
100
AcDbSymbolTableRecord
100
AcDbRegAppTableRecord
  2
ACAD
 70
     0
  0
APPID
  5
1D2
330
9
100
AcDbSymbolTableRecord
100
AcDbRegAppTableRecord
  2
PHOENIX7010
 70
     0
  0
APPID
  5
24C5
330
9
100
AcDbSymbolTableRecord
100
AcDbRegAppTableRecord
  2
ACAD_PSEXT
 70
     0
  0
APPID
  5
2550
330
9
100
AcDbSymbolTableRecord
100
AcDbRegAppTableRecord
  2
ACAD_EXEMPT_FROM_CAD_STANDARDS
 70
     0
  0
APPID
  5
2593
330
9
100
AcDbSymbolTableRecord
100
AcDbRegAppTableRecord
  2
AdeskUnderlayLayerOverrideData
 70
     0
  0
APPID
  5
268C
330
9
100
AcDbSymbolTableRecord
100
AcDbRegAppTableRecord
  2
ACAD_MLEADERVER
 70
     0
  0
APPID
  5
2A43
330
9
100
AcDbSymbolTableRecord
100
AcDbRegAppTableRecord
  2
DCO15
 70
     0
  0
ENDTAB
  0
TABLE
  2
DIMSTYLE
  5
A
330
0
100
AcDbSymbolTable
 70
     4
100
AcDbDimStyleTable
 71
     1
340
1D
  0
DIMSTYLE
105
1D
330
A
100
AcDbSymbolTableRecord
100
AcDbDimStyleTableRecord
  2
STANDARD
 70
     0
340
F
  0
DIMSTYLE
105
1D9
330
A
100
AcDbSymbolTableRecord
100
AcDbDimStyleTableRecord
  2
PHOENIX
 70
     0
  4
"
 41
3.72
 42
0.0
 43
7.0
 44
1.5
 73
     0
 74
     0
 77
     1
 78
     8
140
3.5
141
0.0
143
0.0393700787401575
146
0.6666666666666666
147
2.0
172
     1
173
     1
176
     1
177
     1
178
     5
271
     2
272
     2
284
     8
288
     1
289
     0
340
F
341
1D3
343
1D3
344
1D3
  0
DIMSTYLE
105
1DA
330
A
100
AcDbSymbolTableRecord
100
AcDbDimStyleTableRecord
  2
PHOENIX$4
 70
     0
  4
"
 41
3.72
 42
0.0
 43
7.0
 44
1.5
 73
     0
 74
     0
 77
     1
 78
     8
140
3.5
141
0.0
143
0.0393700787401575
146
0.6666666666666666
147
2.0
173
     1
176
     1
177
     1
178
     5
271
     2
272
     2
281
     1
284
     8
288
     1
289
     0
340
F
341
1D3
343
1D3
344
1D3
  0
DIMSTYLE
105
56A
330
A
100
AcDbSymbolTableRecord
100
AcDbDimStyleTableRecord
  2
ISO-25
 70
     0
 41
2.5
 42
0.625
 43
3.75
 44
1.25
 73
     0
 74
     0
 77
     1
 78
     8
140
2.5
141
2.5
143
0.03937007874016
147
0.625
171
     3
172
     1
271
     2
272
     2
274
     3
278
    44
283
     0
284
     8
340
F
  0
ENDTAB
  0
TABLE
  2
BLOCK_RECORD
  5
1
330
0
100
AcDbSymbolTable
 70
     2
  0
BLOCK_RECORD
  5
18
330
1
100
AcDbSymbolTableRecord
100
AcDbBlockTableRecord
  2
*MODEL_SPACE
340
4D4
  0
BLOCK_RECORD
  5
15
330
1
100
AcDbSymbolTableRecord
100
AcDbBlockTableRecord
  2
*PAPER_SPACE
340
4D5
  0
BLOCK_RECORD
  5
1D3
330
1
100
AcDbSymbolTableRecord
100
AcDbBlockTableRecord
  2
_OPEN15
340
0
  0
BLOCK_RECORD
  5
1F1
330
1
100
AcDbSymbolTableRecord
100
AcDbBlockTableRecord
  2
PH_GRPBLK
340
0
102
{BLKREFS
331
5AC
331
24CF
331
24D2
331
250A
102
}
  0
ENDTAB
  0
ENDSEC
  0
SECTION
  2
BLOCKS
  0
BLOCK
  5
19
330
18
100
AcDbEntity
  8
0
100
AcDbBlockBegin
  2
*MODEL_SPACE
 70
     0
 10
0.0
 20
0.0
 30
0.0
  3
*MODEL_SPACE
  1

  0
ENDBLK
  5
1A
330
18
100
AcDbEntity
  8
0
100
AcDbBlockEnd
  0
BLOCK
  5
16
330
15
100
AcDbEntity
 67
     1
  8
0
100
AcDbBlockBegin
  2
*PAPER_SPACE
 70
     0
 10
0.0
 20
0.0
 30
0.0
  3
*PAPER_SPACE
  1

  0
ENDBLK
  5
17
330
15
100
AcDbEntity
 67
     1
  8
0
100
AcDbBlockEnd
  0
BLOCK
  5
1D7
330
1D3
100
AcDbEntity
  8
0
100
AcDbBlockBegin
  2
_OPEN15
 70
     0
 10
1.0
 20
0.0
 30
0.0
  3
_OPEN15
  1

  0
LINE
  5
1D4
330
1D3
100
AcDbEntity
  8
0
  6
ByBlock
 62
     0
100
AcDbLine
 10
0.0
 20
0.0
 30
0.0
 11
1.0
 21
0.0
 31
0.0
  0
LINE
  5
1D5
330
1D3
100
AcDbEntity
  8
0
  6
ByBlock
 62
     0
100
AcDbLine
 10
1.0
 20
0.0
 30
0.0
 11
0.0
 21
0.1316524975873958
 31
0.0
  0
LINE
  5
1D6
330
1D3
100
AcDbEntity
  8
0
  6
ByBlock
 62
     0
100
AcDbLine
 10
1.0
 20
0.0
 30
0.0
 11
0.0
 21
-0.1316524975873958
 31
0.0
  0
ENDBLK
  5
1D8
330
1D3
100
AcDbEntity
  8
0
100
AcDbBlockEnd
  0
BLOCK
  5
1F3
330
1F1
100
AcDbEntity
  8
0
 62
     7
100
AcDbBlockBegin
  2
PH_GRPBLK
 70
     0
 10
0.0
 20
0.0
 30
0.0
  3
PH_GRPBLK
  1

  0
POINT
  5
1F2
330
1F1
100
AcDbEntity
  8
DEFPOINTS
  6
Continuous
 62
     0
100
AcDbPoint
 10
0.0
 20
0.0
 30
0.0
  0
ENDBLK
  5
1F4
330
1F1
100
AcDbEntity
  8
0
 62
     7
100
AcDbBlockEnd
  0
ENDSEC
  0
SECTION
  2
ENTITIES
  0
LINE
  5
336
330
18
100
AcDbEntity
  8
0
  6
Continuous
 62
     1
100
AcDbLine
 10
415.0067625401404
 20
214.7228758556653
 30
0.0
 11
390.7864866612342
 21
214.7228758556653
 31
0.0
1001
PHOENIX7010
1002
{
1070
    41
1040
2.0
1002
}
  0
TEXT
  5
337
330
18
100
AcDbEntity
  8
0
 62
     5
100
AcDbText
 10
391.7718077061561
 20
215.465833924513
 30
0.0
 40
2.5
  1
DIN 74- AF 5
100
AcDbText
1001
PHOENIX7010
1002
{
1070
    41
1040
2.0
1002
}
  0
LINE
  5
338
330
18
100
AcDbEntity
  8
0
  6
ACAD_ISO04W100
 62
     1
100
AcDbLine
 10
352.3073051573612
 20
230.6901686413098
 30
0.0
 11
352.3073051573612
 21
319.2151625377942
 31
0.0
1001
PHOENIX7010
1002
{
1070
    41
1040
2.0
1002
}
  0
LINE
  5
339
330
18
100
AcDbEntity
  8
0
  6
Continuous
 62
     1
100
AcDbLine
 10
352.3073051573612
 20
241.615133546095
 30
0.0
 11
358.1433876158573
 21
225.6901686413098
 31
0.0
1001
PHOENIX7010
1002
{
1070
    41
1040
2.0
1002
}
  0
LINE
  5
33A
330
18
100
AcDbEntity
  8
0
  6
Continuous
 62
     1
100
AcDbLine
 10
358.1433876158573
 20
225.6901686413098
 30
0.0
 11
363.7945793272831
 21
225.6901686413098
 31
0.0
1001
PHOENIX7010
1002
{
1070
    41
1040
2.0
1002
}
  0
TEXT
  5
33B
330
18
100
AcDbEntity
  8
0
 62
     5
100
AcDbText
 10
358.7491081358769
 20
226.4156325084973
 30
0.0
 40
2.5
  1
ø 6
100
AcDbText
1001
PHOENIX7010
1002
{
1070
    41
1040
2.0
1002
}
  0
LINE
  5
33C
330
18
100
AcDbEntity
  8
0
  6
Continuous
 62
     1
100
AcDbLine
 10
400.5067625401403
 20
249.5276701671887
 30
0.0
 11
388.1611471531775
 21
219.0816252453137
 31
0.0
1001
PHOENIX7010
1002
{
1070
    41
1040
2.0
1002
}
  0
LINE
  5
33D
330
18
100
AcDbEntity
  8
0
  6
Continuous
 62
     1
100
AcDbLine
 10
388.1611471531775
 20
219.0816252453137
 30
0.0
 11
388.1611471531775
 21
208.7289126140881
 31
0.0
1001
PHOENIX7010
1002
{
1070
    41
1040
2.0
1002
}
  0
LINE
  5
33E
330
18
100
AcDbEntity
  8
0
  6
Continuous
 62
     1
100
AcDbLine
 10
388.1611471531775
 20
208.7289145214368
 30
0.0
 11
407.6586637852575
 21
208.7289145214368
 31
0.0
1001
PHOENIX7010
1002
{
1070
    41
1040
2.0
1002
}
  0
TEXT
  5
33F
330
18
100
AcDbEntity
  8
0
 62
     5
100
AcDbText
 10
391.5868406651404
 20
209.4616873485852
 30
0.0
 40
2.5
  1
ø 10.4 x 7.5
100
AcDbText
1001
PHOENIX7010
1002
{
1070
    41
1040
2.0
1002
}
  0
LINE
  5
340
330
18
100
AcDbEntity
  8
0
  6
Continuous
 62
     1
100
AcDbLine
 10
404.3859053013709
 20
239.744039796095
 30
0.0
 11
404.853579556742
 21
238.0576842052747
 31
0.0
1001
PHOENIX7010
1002
{
1070
    41
1040
2.0
1002
}
  0
LINE
  5
341
330
18
100
AcDbEntity
  8
0
  6
Continuous
 62
     1
100
AcDbLine
 10
404.3859053013709
 20
239.744039796095
 30
0.0
 11
405.2740965245154
 21
238.2361891491223
 31
0.0
1001
PHOENIX7010
1002
{
1070
    41
1040
2.0
1002
}
  0
LINE
  5
342
330
18
100
AcDbEntity
  8
0
  6
Continuous
 62
     1
100
AcDbLine
 10
403.5067625401404
 20
241.8151686413098
 30
0.0
 11
415.0067625401404
 21
214.722872040968
 31
0.0
1001
PHOENIX7010
1002
{
1070
    41
1040
2.0
1002
}
  0
LINE
  5
343
330
18
100
AcDbEntity
  8
0
  6
Continuous
 62
     1
100
AcDbLine
 10
345.8072975279667
 20
225.6901686413098
 30
0.0
 11
352.3073051573612
 21
225.6901686413098
 31
0.0
1001
PHOENIX7010
1002
{
1070
    41
1040
2.0
1002
}
  0
LINE
  5
344
330
18
100
AcDbEntity
  8
0
  6
Continuous
 62
     1
100
AcDbLine
 10
345.8072975279667
 20
230.6901686413098
 30
0.0
 11
345.8072975279667
 21
224.6901686413099
 31
0.0
1001
PHOENIX7010
1002
{
1070
    41
1040
2.0
1002
}
  0
LINE
  5
345
330
18
100
AcDbEntity
  8
0
  6
Continuous
 62
     1
100
AcDbLine
 10
352.3073051573612
 20
230.6901686413098
 30
0.0
 11
352.3073051573612
 21
224.6901686413099
 31
0.0
1001
PHOENIX7010
1002
{
1070
    41
1040
2.0
1002
}
  0
LINE
  5
346
330
18
100
AcDbEntity
  8
0
  6
Continuous
 62
     1
100
AcDbLine
 10
345.8072975279667
 20
225.6901686413098
 30
0.0
 11
347.5423248411991
 21
225.9185888988782
 31
0.0
1001
PHOENIX7010
1002
{
1070
    41
1040
2.0
1002
}
  0
LINE
  5
347
330
18
100
AcDbEntity
  8
0
  6
Continuous
 62
     1
100
AcDbLine
 10
345.8072975279667
 20
225.6901686413098
 30
0.0
 11
347.5423248411991
 21
225.4617483837415
 31
0.0
1001
PHOENIX7010
1002
{
1070
    41
1040
2.0
1002
}
  0
LINE
  5
348
330
18
100
AcDbEntity
  8
0
  6
Continuous
 62
     1
100
AcDbLine
 10
352.3073051573612
 20
225.6901686413098
 30
0.0
 11
350.5722778441288
 21
225.9185888988782
 31
0.0
1001
PHOENIX7010
1002
{
1070
    41
1040
2.0
1002
}
  0
LINE
  5
349
330
18
100
AcDbEntity
  8
0
  6
Continuous
 62
     1
100
AcDbLine
 10
352.3073051573612
 20
225.6901686413098
 30
0.0
 11
350.5722778441288
 21
225.4617483837415
 31
0.0
1001
PHOENIX7010
1002
{
1070
    41
1040
2.0
1002
}
  0
TEXT
  5
34A
330
18
100
AcDbEntity
  8
0
 62
     5
100
AcDbText
 10
346.5573013426639
 20
226.1901686413098
 30
0.0
 40
2.5
  1
 13 
 72
     1
 11
349.057301342664
 21
226.1901686413098
 31
0.0
100
AcDbText
1001
PHOENIX7010
1002
{
1070
    41
1040
2.0
1002
}
  0
LINE
  5
34B
330
18
100
AcDbEntity
  8
0
  6
Continuous
 62
     1
100
AcDbLine
 10
339.3072975279667
 20
230.6901686413098
 30
0.0
 11
339.3072975279667
 21
241.615133546095
 31
0.0
1001
PHOENIX7010
1002
{
1070
    41
1040
2.0
1002
}
  0
LINE
  5
34C
330
18
100
AcDbEntity
  8
0
  6
Continuous
 62
     1
100
AcDbLine
 10
344.3072975279667
 20
230.6901686413098
 30
0.0
 11
338.3072975279667
 21
230.6901686413098
 31
0.0
1001
PHOENIX7010
1002
{
1070
    41
1040
2.0
1002
}
  0
LINE
  5
34D
330
18
100
AcDbEntity
  8
0
  6
Continuous
 62
     1
100
AcDbLine
 10
352.3073051573612
 20
241.615133546095
 30
0.0
 11
338.3072975279667
 21
241.615133546095
 31
0.0
1001
PHOENIX7010
1002
{
1070
    41
1040
2.0
1002
}
  0
LINE
  5
34E
330
18
100
AcDbEntity
  8
0
  6
Continuous
 62
     1
100
AcDbLine
 10
339.3072975279667
 20
230.6901686413098
 30
0.0
 11
339.0788772703983
 21
232.4251959545422
 31
0.0
1001
PHOENIX7010
1002
{
1070
    41
1040
2.0
1002
}
  0
LINE
  5
34F
330
18
100
AcDbEntity
  8
0
  6
Continuous
 62
     1
100
AcDbLine
 10
339.3072975279667
 20
230.6901686413098
 30
0.0
 11
339.5357177855351
 21
232.4251959545422
 31
0.0
1001
PHOENIX7010
1002
{
1070
    41
1040
2.0
1002
}
  0
LINE
  5
350
330
18
100
AcDbEntity
  8
0
  6
Continuous
 62
     1
100
AcDbLine
 10
339.3072975279667
 20
241.615133546095
 30
0.0
 11
339.0788772703983
 21
239.8801024181653
 31
0.0
1001
PHOENIX7010
1002
{
1070
    41
1040
2.0
1002
}
  0
LINE
  5
351
330
18
100
AcDbEntity
  8
0
  6
Continuous
 62
     1
100
AcDbLine
 10
339.3072975279667
 20
241.615133546095
 30
0.0
 11
339.5357177855351
 21
239.8801024181653
 31
0.0
1001
PHOENIX7010
1002
{
1070
    41
1040
2.0
1002
}
  0
TEXT
  5
352
330
18
100
AcDbEntity
  8
0
 62
     5
100
AcDbText
 10
338.8072975279667
 20
233.4343932196866
 30
0.0
 40
2.5
  1
21.8
 50
90.0
 72
     1
 11
338.8072975279667
 21
236.1526510937024
 31
0.0
100
AcDbText
1001
PHOENIX7010
1002
{
1070
    41
1040
2.0
1002
}
  0
LINE
  5
353
330
18
100
AcDbEntity
  8
0
  6
Continuous
 62
     1
100
AcDbLine
 10
339.307295620618
 20
241.615133546095
 30
0.0
 11
339.307295620618
 21
263.8401701671887
 31
0.0
1001
PHOENIX7010
1002
{
1070
    41
1040
2.0
1002
}
  0
LINE
  5
354
330
18
100
AcDbEntity
  8
0
  6
Continuous
 62
     1
100
AcDbLine
 10
352.3072975279667
 20
263.8401701671887
 30
0.0
 11
338.3072975279667
 21
263.8401701671887
 31
0.0
1001
PHOENIX7010
1002
{
1070
    41
1040
2.0
1002
}
  0
LINE
  5
355
330
18
100
AcDbEntity
  8
0
  6
Continuous
 62
     1
100
AcDbLine
 10
339.307295620618
 20
241.615133546095
 30
0.0
 11
339.0788753630497
 21
243.3501646740247
 31
0.0
1001
PHOENIX7010
1002
{
1070
    41
1040
2.0
1002
}
  0
LINE
  5
356
330
18
100
AcDbEntity
  8
0
  6
Continuous
 62
     1
100
AcDbLine
 10
339.307295620618
 20
241.615133546095
 30
0.0
 11
339.5357158781864
 21
243.3501646740247
 31
0.0
1001
PHOENIX7010
1002
{
1070
    41
1040
2.0
1002
}
  0
LINE
  5
357
330
18
100
AcDbEntity
  8
0
  6
Continuous
 62
     1
100
AcDbLine
 10
339.307295620618
 20
263.8401701671887
 30
0.0
 11
339.0788753630497
 21
262.105139039259
 31
0.0
1001
PHOENIX7010
1002
{
1070
    41
1040
2.0
1002
}
  0
LINE
  5
358
330
18
100
AcDbEntity
  8
0
  6
Continuous
 62
     1
100
AcDbLine
 10
339.307295620618
 20
263.8401701671887
 30
0.0
 11
339.5357158781864
 21
262.105139039259
 31
0.0
1001
PHOENIX7010
1002
{
1070
    41
1040
2.0
1002
}
  0
TEXT
  5
359
330
18
100
AcDbEntity
  8
0
 62
     5
100
AcDbText
 10
338.8072956206181
 20
248.4258751613452
 30
0.0
 40
2.5
  1
44.45
 50
90.0
 72
     1
 11
338.8072956206181
 21
252.7276518566418
 31
0.0
100
AcDbText
1001
PHOENIX7010
1002
{
1070
    41
1040
2.0
1002
}
  0
LINE
  5
35A
330
18
100
AcDbEntity
  8
0
  6
Continuous
 62
     1
100
AcDbLine
 10
334.3072956206181
 20
241.615133546095
 30
0.0
 11
334.3072956206181
 21
286.0651686413098
 31
0.0
1001
PHOENIX7010
1002
{
1070
    41
1040
2.0
1002
}
  0
LINE
  5
35B
330
18
100
AcDbEntity
  8
0
  6
Continuous
 62
     1
100
AcDbLine
 10
339.307295620618
 20
241.615133546095
 30
0.0
 11
333.307295620618
 21
241.615133546095
 31
0.0
1001
PHOENIX7010
1002
{
1070
    41
1040
2.0
1002
}
  0
LINE
  5
35C
330
18
100
AcDbEntity
  8
0
  6
Continuous
 62
     1
100
AcDbLine
 10
352.3072975279667
 20
286.0651686413098
 30
0.0
 11
333.3072975279667
 21
286.0651686413098
 31
0.0
1001
PHOENIX7010
1002
{
1070
    41
1040
2.0
1002
}
  0
LINE
  5
35D
330
18
100
AcDbEntity
  8
0
  6
Continuous
 62
     1
100
AcDbLine
 10
334.3072956206181
 20
241.615133546095
 30
0.0
 11
334.0788753630497
 21
243.3501646740247
 31
0.0
1001
PHOENIX7010
1002
{
1070
    41
1040
2.0
1002
}
  0
LINE
  5
35E
330
18
100
AcDbEntity
  8
0
  6
Continuous
 62
     1
100
AcDbLine
 10
334.3072956206181
 20
241.615133546095
 30
0.0
 11
334.5357158781864
 21
243.3501646740247
 31
0.0
1001
PHOENIX7010
1002
{
1070
    41
1040
2.0
1002
}
  0
LINE
  5
35F
330
18
100
AcDbEntity
  8
0
  6
Continuous
 62
     1
100
AcDbLine
 10
334.3072956206181
 20
286.0651686413098
 30
0.0
 11
334.0788753630497
 21
284.3301375133802
 31
0.0
1001
PHOENIX7010
1002
{
1070
    41
1040
2.0
1002
}
  0
LINE
  5
360
330
18
100
AcDbEntity
  8
0
  6
Continuous
 62
     1
100
AcDbLine
 10
334.3072956206181
 20
286.0651686413098
 30
0.0
 11
334.5357158781864
 21
284.3301375133802
 31
0.0
1001
PHOENIX7010
1002
{
1070
    41
1040
2.0
1002
}
  0
TEXT
  5
361
330
18
100
AcDbEntity
  8
0
 62
     5
100
AcDbText
 10
333.807295620618
 20
256.7883705837085
 30
0.0
 40
2.5
  1
n x 44.45
 50
90.0
 72
     1
 11
333.807295620618
 21
263.8401472790051
 31
0.0
100
AcDbText
1001
PHOENIX7010
1002
{
1070
    41
1040
2.0
1002
}
  0
LINE
  5
362
330
18
100
AcDbEntity
  8
0
  6
Continuous
 62
     7
100
AcDbLine
 10
344.3072975279667
 20
195.3484787580676
 30
0.0
 11
344.9318817259647
 21
195.3484787580676
 31
0.0
1001
PHOENIX7010
1002
{
1070
    41
1040
2.0
1002
}
  0
LINE
  5
363
330
18
100
AcDbEntity
  8
0
  6
Continuous
 62
     1
100
AcDbLine
 10
344.9318817259647
 20
195.3484787580676
 30
0.0
 11
344.9318817259647
 21
196.3622460004992
 31
0.0
1001
PHOENIX7010
1002
{
1070
    41
1040
2.0
1002
}
  0
LINE
  5
364
330
18
100
AcDbEntity
  8
0
  6
Continuous
 62
     1
100
AcDbLine
 10
344.9318817259647
 20
196.3622460004992
 30
0.0
 11
345.5027473570682
 21
196.3622460004992
 31
0.0
1001
PHOENIX7010
1002
{
1070
    41
1040
2.0
1002
}
  0
LINE
  5
365
330
18
100
AcDbEntity
  8
0
  6
Continuous
 62
     1
100
AcDbLine
 10
345.5027473570682
 20
195.3484787580676
 30
0.0
 11
345.5027473570682
 21
196.3622460004992
 31
0.0
1001
PHOENIX7010
1002
{
1070
    41
1040
2.0
1002
}
  0
LINE
  5
366
330
18
100
AcDbEntity
  8
0
  6
Continuous
 62
     7
100
AcDbLine
 10
345.5027473570682
 20
195.3484787580676
 30
0.0
 11
345.8072975279667
 21
195.3484787580676
 31
0.0
1001
PHOENIX7010
1002
{
1070
    41
1040
2.0
1002
}
  0
LINE
  5
367
330
18
100
AcDbEntity
  8
0
  6
Continuous
 62
     7
100
AcDbLine
 10
345.8072975279667
 20
197.548479521007
 30
0.0
 11
362.9572990538456
 21
197.548479521007
 31
0.0
1001
PHOENIX7010
1002
{
1070
    41
1040
2.0
1002
}
  0
LINE
  5
368
330
18
100
AcDbEntity
  8
0
  6
Continuous
 62
     7
100
AcDbLine
 10
362.9572990538456
 20
197.548479521007
 30
0.0
 11
361.7072952391483
 21
198.7984814283557
 31
0.0
1001
PHOENIX7010
1002
{
1070
    41
1040
2.0
1002
}
  0
LINE
  5
369
330
18
100
AcDbEntity
  8
0
  6
Continuous
 62
     7
100
AcDbLine
 10
345.8072975279667
 20
209.2484783765979
 30
0.0
 11
344.3072975279667
 21
209.2484783765979
 31
0.0
1001
PHOENIX7010
1002
{
1070
    41
1040
2.0
1002
}
  0
LINE
  5
36A
330
18
100
AcDbEntity
  8
0
  6
Continuous
 62
     7
100
AcDbLine
 10
344.3072975279667
 20
195.3484787580676
 30
0.0
 11
344.3072975279667
 21
209.2484783765979
 31
0.0
1001
PHOENIX7010
1002
{
1070
    41
1040
2.0
1002
}
  0
LINE
  5
36B
330
18
100
AcDbEntity
  8
0
  6
Continuous
 62
     7
100
AcDbLine
 10
345.8072975279667
 20
197.548479521007
 30
0.0
 11
345.8072975279667
 21
195.3484787580676
 31
0.0
1001
PHOENIX7010
1002
{
1070
    41
1040
2.0
1002
}
  0
ARC
  5
36C
330
18
100
AcDbEntity
  8
0
  6
Continuous
 62
     7
100
AcDbCircle
 10
347.3072975279667
 20
200.2984814283557
 30
0.0
 40
1.5
100
AcDbArc
 50
180.0
 51
270.0
1001
PHOENIX7010
1002
{
1070
    41
1040
2.0
1002
}
  0
LINE
  5
36D
330
18
100
AcDbEntity
  8
0
  6
Continuous
 62
     7
100
AcDbLine
 10
345.8072975279667
 20
209.2484783765979
 30
0.0
 11
345.8072975279667
 21
200.2984776136584
 31
0.0
1001
PHOENIX7010
1002
{
1070
    41
1040
2.0
1002
}
  0
LINE
  5
36E
330
18
100
AcDbEntity
  8
0
  6
Continuous
 62
     7
100
AcDbLine
 10
347.3072975279667
 20
198.7984814283557
 30
0.0
 11
361.7072952391483
 21
198.7984814283557
 31
0.0
1001
PHOENIX7010
1002
{
1070
    41
1040
2.0
1002
}
  0
LINE
  5
36F
330
18
100
AcDbEntity
  8
0
  6
Continuous
 62
     1
100
AcDbLine
 10
344.3072975279667
 20
195.3484787580676
 30
0.0
 11
344.3072975279667
 21
189.3484787580676
 31
0.0
1001
PHOENIX7010
1002
{
1070
    41
1040
2.0
1002
}
  0
LINE
  5
370
330
18
100
AcDbEntity
  8
0
  6
Continuous
 62
     1
100
AcDbLine
 10
345.8072975279667
 20
195.3484787580676
 30
0.0
 11
345.8072975279667
 21
189.3484787580676
 31
0.0
1001
PHOENIX7010
1002
{
1070
    41
1040
2.0
1002
}
  0
LINE
  5
371
330
18
100
AcDbEntity
  8
0
  6
Continuous
 62
     1
100
AcDbLine
 10
344.3072975279667
 20
190.3484787580676
 30
0.0
 11
342.5722702147343
 21
190.5768990156359
 31
0.0
1001
PHOENIX7010
1002
{
1070
    41
1040
2.0
1002
}
  0
LINE
  5
372
330
18
100
AcDbEntity
  8
0
  6
Continuous
 62
     1
100
AcDbLine
 10
344.3072975279667
 20
190.3484787580676
 30
0.0
 11
342.5722702147343
 21
190.1200585004992
 31
0.0
1001
PHOENIX7010
1002
{
1070
    41
1040
2.0
1002
}
  0
LINE
  5
373
330
18
100
AcDbEntity
  8
0
  6
Continuous
 62
     1
100
AcDbLine
 10
345.8072975279667
 20
190.3484787580676
 30
0.0
 11
347.5423248411991
 21
190.5768990156359
 31
0.0
1001
PHOENIX7010
1002
{
1070
    41
1040
2.0
1002
}
  0
LINE
  5
374
330
18
100
AcDbEntity
  8
0
  6
Continuous
 62
     1
100
AcDbLine
 10
345.8072975279667
 20
190.3484787580676
 30
0.0
 11
347.5423248411991
 21
190.1200585004992
 31
0.0
1001
PHOENIX7010
1002
{
1070
    41
1040
2.0
1002
}
  0
TEXT
  5
375
330
18
100
AcDbEntity
  8
0
 62
     5
100
AcDbText
 10
348.3072975279667
 20
190.8484787580676
 30
0.0
 40
2.5
  1
3  
100
AcDbText
1001
PHOENIX7010
1002
{
1070
    41
1040
2.0
1002
}
  0
LINE
  5
376
330
18
100
AcDbEntity
  8
0
  6
Continuous
 62
     1
100
AcDbLine
 10
340.8072975279667
 20
190.3484787580676
 30
0.0
 11
350.2355316283085
 21
190.3484787580676
 31
0.0
1001
PHOENIX7010
1002
{
1070
    41
1040
2.0
1002
}
  0
LINE
  5
377
330
18
100
AcDbEntity
  8
0
  6
Continuous
 62
     1
100
AcDbLine
 10
344.3072975279667
 20
185.3484787580676
 30
0.0
 11
362.9572990538456
 21
185.3484787580676
 31
0.0
1001
PHOENIX7010
1002
{
1070
    41
1040
2.0
1002
}
  0
LINE
  5
378
330
18
100
AcDbEntity
  8
0
  6
Continuous
 62
     1
100
AcDbLine
 10
344.3072975279667
 20
190.3484787580676
 30
0.0
 11
344.3072975279667
 21
184.3484787580676
 31
0.0
1001
PHOENIX7010
1002
{
1070
    41
1040
2.0
1002
}
  0
LINE
  5
379
330
18
100
AcDbEntity
  8
0
  6
Continuous
 62
     1
100
AcDbLine
 10
362.9572990538456
 20
197.548479521007
 30
0.0
 11
362.9572990538456
 21
184.3484787580676
 31
0.0
1001
PHOENIX7010
1002
{
1070
    41
1040
2.0
1002
}
  0
LINE
  5
37A
330
18
100
AcDbEntity
  8
0
  6
Continuous
 62
     1
100
AcDbLine
 10
344.3072975279667
 20
185.3484787580676
 30
0.0
 11
346.0423248411991
 21
185.576899015636
 31
0.0
1001
PHOENIX7010
1002
{
1070
    41
1040
2.0
1002
}
  0
LINE
  5
37B
330
18
100
AcDbEntity
  8
0
  6
Continuous
 62
     1
100
AcDbLine
 10
344.3072975279667
 20
185.3484787580676
 30
0.0
 11
346.0423248411991
 21
185.1200585004992
 31
0.0
1001
PHOENIX7010
1002
{
1070
    41
1040
2.0
1002
}
  0
LINE
  5
37C
330
18
100
AcDbEntity
  8
0
  6
Continuous
 62
     1
100
AcDbLine
 10
362.9572990538456
 20
185.3484787580676
 30
0.0
 11
361.2222717406132
 21
185.576899015636
 31
0.0
1001
PHOENIX7010
1002
{
1070
    41
1040
2.0
1002
}
  0
LINE
  5
37D
330
18
100
AcDbEntity
  8
0
  6
Continuous
 62
     1
100
AcDbLine
 10
362.9572990538456
 20
185.3484787580676
 30
0.0
 11
361.2222717406132
 21
185.1200585004992
 31
0.0
1001
PHOENIX7010
1002
{
1070
    41
1040
2.0
1002
}
  0
TEXT
  5
37E
330
18
100
AcDbEntity
  8
0
 62
     5
100
AcDbText
 10
350.5805215956095
 20
185.8484787580676
 30
0.0
 40
2.5
  1
37.3
 72
     1
 11
353.6322982909061
 21
185.8484787580676
 31
0.0
100
AcDbText
1001
PHOENIX7010
1002
{
1070
    41
1040
2.0
1002
}
  0
LINE
  5
37F
330
18
100
AcDbEntity
  8
0
  6
Continuous
 62
     1
100
AcDbLine
 10
362.9572990538456
 20
197.548479521007
 30
0.0
 11
368.9572990538456
 21
197.548479521007
 31
0.0
1001
PHOENIX7010
1002
{
1070
    41
1040
2.0
1002
}
  0
LINE
  5
380
330
18
100
AcDbEntity
  8
0
  6
Continuous
 62
     1
100
AcDbLine
 10
361.7072952391483
 20
198.7984814283557
 30
0.0
 11
368.9572990538456
 21
198.7984814283557
 31
0.0
1001
PHOENIX7010
1002
{
1070
    41
1040
2.0
1002
}
  0
LINE
  5
381
330
18
100
AcDbEntity
  8
0
  6
Continuous
 62
     1
100
AcDbLine
 10
367.9572990538456
 20
197.548479521007
 30
0.0
 11
367.7288787962772
 21
195.8134522077746
 31
0.0
1001
PHOENIX7010
1002
{
1070
    41
1040
2.0
1002
}
  0
LINE
  5
382
330
18
100
AcDbEntity
  8
0
  6
Continuous
 62
     1
100
AcDbLine
 10
367.9572990538456
 20
197.548479521007
 30
0.0
 11
368.185719311414
 21
195.8134522077746
 31
0.0
1001
PHOENIX7010
1002
{
1070
    41
1040
2.0
1002
}
  0
LINE
  5
383
330
18
100
AcDbEntity
  8
0
  6
Continuous
 62
     1
100
AcDbLine
 10
367.9572990538456
 20
198.7984814283557
 30
0.0
 11
367.7288787962772
 21
200.5335087415881
 31
0.0
1001
PHOENIX7010
1002
{
1070
    41
1040
2.0
1002
}
  0
LINE
  5
384
330
18
100
AcDbEntity
  8
0
  6
Continuous
 62
     1
100
AcDbLine
 10
367.9572990538456
 20
198.7984814283557
 30
0.0
 11
368.185719311414
 21
200.5335087415881
 31
0.0
1001
PHOENIX7010
1002
{
1070
    41
1040
2.0
1002
}
  0
TEXT
  5
385
330
18
100
AcDbEntity
  8
0
 62
     5
100
AcDbText
 10
367.4572990538456
 20
201.2984814283557
 30
0.0
 40
2.5
  1
2.5
 50
90.0
100
AcDbText
1001
PHOENIX7010
1002
{
1070
    41
1040
2.0
1002
}
  0
LINE
  5
386
330
18
100
AcDbEntity
  8
0
  6
Continuous
 62
     1
100
AcDbLine
 10
367.9572990538456
 20
194.048479521007
 30
0.0
 11
367.9572990538456
 21
205.7277416822619
 31
0.0
1001
PHOENIX7010
1002
{
1070
    41
1040
2.0
1002
}
  0
LINE
  5
387
330
18
100
AcDbEntity
  8
0
  6
Continuous
 62
     1
100
AcDbLine
 10
344.3072975279667
 20
195.3484787580676
 30
0.0
 11
338.3072975279667
 21
195.3484787580676
 31
0.0
1001
PHOENIX7010
1002
{
1070
    41
1040
2.0
1002
}
  0
LINE
  5
388
330
18
100
AcDbEntity
  8
0
  6
Continuous
 62
     1
100
AcDbLine
 10
345.8072975279667
 20
197.548479521007
 30
0.0
 11
338.3072975279667
 21
197.548479521007
 31
0.0
1001
PHOENIX7010
1002
{
1070
    41
1040
2.0
1002
}
  0
LINE
  5
389
330
18
100
AcDbEntity
  8
0
  6
Continuous
 62
     1
100
AcDbLine
 10
339.3072975279667
 20
195.3484787580676
 30
0.0
 11
339.0788772703983
 21
193.6134495374865
 31
0.0
1001
PHOENIX7010
1002
{
1070
    41
1040
2.0
1002
}
  0
LINE
  5
38A
330
18
100
AcDbEntity
  8
0
  6
Continuous
 62
     1
100
AcDbLine
 10
339.3072975279667
 20
195.3484787580676
 30
0.0
 11
339.5357177855351
 21
193.6134495374865
 31
0.0
1001
PHOENIX7010
1002
{
1070
    41
1040
2.0
1002
}
  0
LINE
  5
38B
330
18
100
AcDbEntity
  8
0
  6
Continuous
 62
     1
100
AcDbLine
 10
339.3072975279667
 20
197.548479521007
 30
0.0
 11
339.0788772703983
 21
199.2835049268908
 31
0.0
1001
PHOENIX7010
1002
{
1070
    41
1040
2.0
1002
}
  0
LINE
  5
38C
330
18
100
AcDbEntity
  8
0
  6
Continuous
 62
     1
100
AcDbLine
 10
339.3072975279667
 20
197.548479521007
 30
0.0
 11
339.5357177855351
 21
199.2835049268908
 31
0.0
1001
PHOENIX7010
1002
{
1070
    41
1040
2.0
1002
}
  0
TEXT
  5
38D
330
18
100
AcDbEntity
  8
0
 62
     5
100
AcDbText
 10
338.8072975279667
 20
200.0484814283557
 30
0.0
 40
2.5
  1
4.4
 50
90.0
100
AcDbText
1001
PHOENIX7010
1002
{
1070
    41
1040
2.0
1002
}
  0
LINE
  5
38E
330
18
100
AcDbEntity
  8
0
  6
Continuous
 62
     1
100
AcDbLine
 10
339.3072975279667
 20
191.8484787580676
 30
0.0
 11
339.3072975279667
 21
204.5958294508166
 31
0.0
1001
PHOENIX7010
1002
{
1070
    41
1040
2.0
1002
}
  0
LINE
  5
38F
330
18
100
AcDbEntity
  8
0
  6
Continuous
 62
     1
100
AcDbLine
 10
334.3072956206181
 20
195.3484787580676
 30
0.0
 11
334.3072956206181
 21
209.2484783765979
 31
0.0
1001
PHOENIX7010
1002
{
1070
    41
1040
2.0
1002
}
  0
LINE
  5
390
330
18
100
AcDbEntity
  8
0
  6
Continuous
 62
     1
100
AcDbLine
 10
339.307295620618
 20
195.3484787580676
 30
0.0
 11
333.307295620618
 21
195.3484787580676
 31
0.0
1001
PHOENIX7010
1002
{
1070
    41
1040
2.0
1002
}
  0
LINE
  5
391
330
18
100
AcDbEntity
  8
0
  6
Continuous
 62
     1
100
AcDbLine
 10
344.3072975279667
 20
209.2484783765979
 30
0.0
 11
333.3072975279667
 21
209.2484783765979
 31
0.0
1001
PHOENIX7010
1002
{
1070
    41
1040
2.0
1002
}
  0
LINE
  5
392
330
18
100
AcDbEntity
  8
0
  6
Continuous
 62
     1
100
AcDbLine
 10
334.3072956206181
 20
195.3484787580676
 30
0.0
 11
334.0788753630497
 21
197.0835060713
 31
0.0
1001
PHOENIX7010
1002
{
1070
    41
1040
2.0
1002
}
  0
LINE
  5
393
330
18
100
AcDbEntity
  8
0
  6
Continuous
 62
     1
100
AcDbLine
 10
334.3072956206181
 20
195.3484787580676
 30
0.0
 11
334.5357158781864
 21
197.0835060713
 31
0.0
1001
PHOENIX7010
1002
{
1070
    41
1040
2.0
1002
}
  0
LINE
  5
394
330
18
100
AcDbEntity
  8
0
  6
Continuous
 62
     1
100
AcDbLine
 10
334.3072956206181
 20
209.2484783765979
 30
0.0
 11
334.0788753630497
 21
207.5134510633655
 31
0.0
1001
PHOENIX7010
1002
{
1070
    41
1040
2.0
1002
}
  0
LINE
  5
395
330
18
100
AcDbEntity
  8
0
  6
Continuous
 62
     1
100
AcDbLine
 10
334.3072956206181
 20
209.2484783765979
 30
0.0
 11
334.5357158781864
 21
207.5134510633655
 31
0.0
1001
PHOENIX7010
1002
{
1070
    41
1040
2.0
1002
}
  0
TEXT
  5
396
330
18
100
AcDbEntity
  8
0
 62
     5
100
AcDbText
 10
333.807295620618
 20
199.3302235543399
 30
0.0
 40
2.5
  1
27.8
 50
90.0
 72
     1
 11
333.807295620618
 21
202.2984814283557
 31
0.0
100
AcDbText
1001
PHOENIX7010
1002
{
1070
    41
1040
2.0
1002
}
  0
LINE
  5
397
330
18
100
AcDbEntity
  8
0
  6
Continuous
 62
     1
100
AcDbLine
 10
396.106768643656
 20
230.6901686413098
 30
0.0
 11
396.106768643656
 21
224.6901686413099
 31
0.0
1001
PHOENIX7010
1002
{
1070
    41
1040
2.0
1002
}
  0
LINE
  5
398
330
18
100
AcDbEntity
  8
0
  6
Continuous
 62
     1
100
AcDbLine
 10
400.5067701695349
 20
249.5276701671887
 30
0.0
 11
400.5067701695349
 21
224.6901686413099
 31
0.0
1001
PHOENIX7010
1002
{
1070
    41
1040
2.0
1002
}
  0
LINE
  5
399
330
18
100
AcDbEntity
  8
0
  6
Continuous
 62
     1
100
AcDbLine
 10
396.106768643656
 20
225.6901686413098
 30
0.0
 11
394.3717375157263
 21
225.9185888988782
 31
0.0
1001
PHOENIX7010
1002
{
1070
    41
1040
2.0
1002
}
  0
LINE
  5
39A
330
18
100
AcDbEntity
  8
0
  6
Continuous
 62
     1
100
AcDbLine
 10
396.106768643656
 20
225.6901686413098
 30
0.0
 11
394.3717375157263
 21
225.4617483837415
 31
0.0
1001
PHOENIX7010
1002
{
1070
    41
1040
2.0
1002
}
  0
LINE
  5
39B
330
18
100
AcDbEntity
  8
0
  6
Continuous
 62
     1
100
AcDbLine
 10
400.5067701695349
 20
225.6901686413098
 30
0.0
 11
402.2418012974646
 21
225.9185888988782
 31
0.0
1001
PHOENIX7010
1002
{
1070
    41
1040
2.0
1002
}
  0
LINE
  5
39C
330
18
100
AcDbEntity
  8
0
  6
Continuous
 62
     1
100
AcDbLine
 10
400.5067701695349
 20
225.6901686413098
 30
0.0
 11
402.2418012974646
 21
225.4617483837415
 31
0.0
1001
PHOENIX7010
1002
{
1070
    41
1040
2.0
1002
}
  0
TEXT
  5
39D
330
18
100
AcDbEntity
  8
0
 62
     5
100
AcDbText
 10
403.0067701695349
 20
226.1901686413098
 30
0.0
 40
2.5
  1
8.8
100
AcDbText
1001
PHOENIX7010
1002
{
1070
    41
1040
2.0
1002
}
  0
LINE
  5
39E
330
18
100
AcDbEntity
  8
0
  6
Continuous
 62
     1
100
AcDbLine
 10
392.6067686436561
 20
225.6901686413098
 30
0.0
 11
407.3567381260779
 21
225.6901686413098
 31
0.0
1001
PHOENIX7010
1002
{
1070
    41
1040
2.0
1002
}
  0
LINE
  5
39F
330
18
100
AcDbEntity
  8
0
  6
Continuous
 62
     1
100
AcDbLine
 10
396.106753384867
 20
220.6901686413099
 30
0.0
 11
403.5067701695349
 21
220.6901686413099
 31
0.0
1001
PHOENIX7010
1002
{
1070
    41
1040
2.0
1002
}
  0
LINE
  5
3A0
330
18
100
AcDbEntity
  8
0
  6
Continuous
 62
     1
100
AcDbLine
 10
396.106753384867
 20
225.6901686413098
 30
0.0
 11
396.106753384867
 21
219.6901686413098
 31
0.0
1001
PHOENIX7010
1002
{
1070
    41
1040
2.0
1002
}
  0
LINE
  5
3A1
330
18
100
AcDbEntity
  8
0
  6
Continuous
 62
     1
100
AcDbLine
 10
396.106753384867
 20
220.6901686413099
 30
0.0
 11
397.8417845127967
 21
220.9185888988782
 31
0.0
1001
PHOENIX7010
1002
{
1070
    41
1040
2.0
1002
}
  0
LINE
  5
3A2
330
18
100
AcDbEntity
  8
0
  6
Continuous
 62
     1
100
AcDbLine
 10
396.106753384867
 20
220.6901686413099
 30
0.0
 11
397.8417845127967
 21
220.4617483837415
 31
0.0
1001
PHOENIX7010
1002
{
1070
    41
1040
2.0
1002
}
  0
LINE
  5
3A3
330
18
100
AcDbEntity
  8
0
  6
Continuous
 62
     1
100
AcDbLine
 10
403.5067701695349
 20
220.6901686413099
 30
0.0
 11
401.7717390416052
 21
220.9185888988782
 31
0.0
1001
PHOENIX7010
1002
{
1070
    41
1040
2.0
1002
}
  0
LINE
  5
3A4
330
18
100
AcDbEntity
  8
0
  6
Continuous
 62
     1
100
AcDbLine
 10
403.5067701695349
 20
220.6901686413099
 30
0.0
 11
401.7717390416052
 21
220.4617483837415
 31
0.0
1001
PHOENIX7010
1002
{
1070
    41
1040
2.0
1002
}
  0
TEXT
  5
3A5
330
18
100
AcDbEntity
  8
0
 62
     5
100
AcDbText
 10
396.6817579625037
 20
221.1901686413098
 30
0.0
 40
2.5
  1
  A  
 72
     1
 11
399.8067579625037
 21
221.1901686413098
 31
0.0
100
AcDbText
1001
PHOENIX7010
1002
{
1070
    41
1040
2.0
1002
}
  0
LINE
  5
3A6
330
18
100
AcDbEntity
  8
0
  6
Continuous
 62
     1
100
AcDbLine
 10
403.5067701695349
 20
224.4955656750013
 30
0.0
 11
403.5067701695349
 21
219.6901686413098
 31
0.0
1001
PHOENIX7010
1002
{
1070
    41
1040
2.0
1002
}
  0
LINE
  5
3A7
330
18
100
AcDbEntity
  8
0
  6
Continuous
 62
     1
100
AcDbLine
 10
403.5067701695349
 20
241.8151686413098
 30
0.0
 11
403.5067701695349
 21
229.9956534130384
 31
0.0
1001
PHOENIX7010
1002
{
1070
    41
1040
2.0
1002
}
  0
CIRCLE
  5
3A8
330
18
100
AcDbEntity
  8
0
  6
Continuous
 62
     7
100
AcDbCircle
 10
352.3072975279667
 20
263.8401701671887
 30
0.0
 40
1.5
1001
PHOENIX7010
1002
{
1070
    41
1040
2.0
1002
}
  0
CIRCLE
  5
3A9
330
18
100
AcDbEntity
  8
0
  6
Continuous
 62
     7
100
AcDbCircle
 10
352.3073051573612
 20
241.615133546095
 30
0.0
 40
1.5
1001
PHOENIX7010
1002
{
1070
    41
1040
2.0
1002
}
  0
CIRCLE
  5
3AA
330
18
100
AcDbEntity
  8
0
  6
Continuous
 62
     7
100
AcDbCircle
 10
352.3073051573612
 20
233.4651320202161
 30
0.0
 40
1.149999976158142
1001
PHOENIX7010
1002
{
1070
    41
1040
2.0
1002
}
  0
CIRCLE
  5
3AB
330
18
100
AcDbEntity
  8
0
  6
Continuous
 62
     7
100
AcDbCircle
 10
359.8073051573612
 20
233.4651320202161
 30
0.0
 40
1.149999976158142
1001
PHOENIX7010
1002
{
1070
    41
1040
2.0
1002
}
  0
LINE
  5
3AC
330
18
100
AcDbEntity
  8
0
  6
Continuous
 62
     7
100
AcDbLine
 10
344.3072975279667
 20
230.6901686413098
 30
0.0
 11
362.9572990538456
 21
230.6901686413098
 31
0.0
1001
PHOENIX7010
1002
{
1070
    41
1040
2.0
1002
}
  0
LINE
  5
3AD
330
18
100
AcDbEntity
  8
0
  6
Continuous
 62
     7
100
AcDbLine
 10
344.3072975279667
 20
230.6901686413098
 30
0.0
 11
344.3072975279667
 21
270.528219483595
 31
0.0
1001
PHOENIX7010
1002
{
1070
    41
1040
2.0
1002
}
  0
LINE
  5
3B0
330
18
100
AcDbEntity
  8
0
  6
Continuous
 62
     7
100
AcDbLine
 10
345.8072975279667
 20
230.6901686413098
 30
0.0
 11
345.8072975279667
 21
272.0198500377942
 31
0.0
1001
PHOENIX7010
1002
{
1070
    41
1040
2.0
1002
}
  0
LINE
  5
3B1
330
18
100
AcDbEntity
  8
0
  6
Continuous
 62
     7
100
AcDbLine
 10
362.9572990538456
 20
230.6901686413098
 30
0.0
 11
362.9572990538456
 21
278.087431214552
 31
0.0
1001
PHOENIX7010
1002
{
1070
    41
1040
2.0
1002
}
  0
LINE
  5
3B2
330
18
100
AcDbEntity
  8
0
  6
Continuous
 62
     7
100
AcDbLine
 10
344.3072975279667
 20
319.2151625377942
 30
0.0
 11
362.9572990538456
 21
319.2151625377942
 31
0.0
1001
PHOENIX7010
1002
{
1070
    41
1040
2.0
1002
}
  0
CIRCLE
  5
3B3
330
18
100
AcDbEntity
  8
0
  6
Continuous
 62
     7
100
AcDbCircle
 10
352.3073051573612
 20
316.4401686413098
 30
0.0
 40
1.149999976158142
1001
PHOENIX7010
1002
{
1070
    41
1040
2.0
1002
}
  0
CIRCLE
  5
3B4
330
18
100
AcDbEntity
  8
0
  6
Continuous
 62
     7
100
AcDbCircle
 10
359.8073051573612
 20
316.4401686413098
 30
0.0
 40
1.149999976158142
1001
PHOENIX7010
1002
{
1070
    41
1040
2.0
1002
}
  0
CIRCLE
  5
3B5
330
18
100
AcDbEntity
  8
0
  6
Continuous
 62
     7
100
AcDbCircle
 10
352.3072975279667
 20
308.2901747448255
 30
0.0
 40
1.5
1001
PHOENIX7010
1002
{
1070
    41
1040
2.0
1002
}
  0
LINE
  5
3B6
330
18
100
AcDbEntity
  8
0
  6
Continuous
 62
     7
100
AcDbLine
 10
344.3072975279667
 20
273.028219483595
 30
0.0
 11
344.3072975279667
 21
319.2151625377942
 31
0.0
1001
PHOENIX7010
1002
{
1070
    41
1040
2.0
1002
}
  0
LINE
  5
3B9
330
18
100
AcDbEntity
  8
0
  6
Continuous
 62
     7
100
AcDbLine
 10
345.8072975279667
 20
274.5198500377942
 30
0.0
 11
345.8072975279667
 21
319.2151625377942
 31
0.0
1001
PHOENIX7010
1002
{
1070
    41
1040
2.0
1002
}
  0
LINE
  5
3BA
330
18
100
AcDbEntity
  8
0
  6
Continuous
 62
     7
100
AcDbLine
 10
362.9572990538456
 20
280.587431214552
 30
0.0
 11
362.9572990538456
 21
319.2151625377942
 31
0.0
1001
PHOENIX7010
1002
{
1070
    41
1040
2.0
1002
}
  0
CIRCLE
  5
3BB
330
18
100
AcDbEntity
  8
0
  6
Continuous
 62
     7
100
AcDbCircle
 10
352.3072975279667
 20
286.0651686413098
 30
0.0
 40
1.5
1001
PHOENIX7010
1002
{
1070
    41
1040
2.0
1002
}
  0
LINE
  5
3BC
330
18
100
AcDbEntity
  8
0
  6
Continuous
 62
     1
100
AcDbLine
 10
346.2953041197636
 20
272.5051329357434
 30
0.0
 11
349.7251518370487
 21
271.4515211803723
 31
0.0
1001
PHOENIX7010
1002
{
1070
    41
1040
2.0
1002
}
  0
LINE
  5
3BD
330
18
100
AcDbEntity
  8
0
  6
Continuous
 62
     1
100
AcDbLine
 10
349.7251518370487
 20
271.4515211803723
 30
0.0
 11
353.4516304137089
 21
274.662756226759
 31
0.0
1001
PHOENIX7010
1002
{
1070
    41
1040
2.0
1002
}
  0
LINE
  5
3BE
330
18
100
AcDbEntity
  8
0
  6
Continuous
 62
     1
100
AcDbLine
 10
353.4516304137089
 20
274.662756226759
 30
0.0
 11
359.2737358214237
 21
274.6579573375989
 31
0.0
1001
PHOENIX7010
1002
{
1070
    41
1040
2.0
1002
}
  0
LINE
  5
3BF
330
18
100
AcDbEntity
  8
0
  6
Continuous
 62
     1
100
AcDbLine
 10
359.2737358214237
 20
274.6579573375989
 30
0.0
 11
361.1399772765019
 21
277.1839888317396
 31
0.0
1001
PHOENIX7010
1002
{
1070
    41
1040
2.0
1002
}
  0
LINE
  5
3C0
330
18
100
AcDbEntity
  8
0
  6
Continuous
 62
     1
100
AcDbLine
 10
344.3072975279667
 20
270.528219483595
 30
0.0
 11
346.2953041197636
 21
272.5051329357434
 31
0.0
1001
PHOENIX7010
1002
{
1070
    41
1040
2.0
1002
}
  0
LINE
  5
3C1
330
18
100
AcDbEntity
  8
0
  6
Continuous
 62
     1
100
AcDbLine
 10
361.1399772765019
 20
277.1839888317396
 30
0.0
 11
362.9572990538456
 21
278.087431214552
 31
0.0
1001
PHOENIX7010
1002
{
1070
    41
1040
2.0
1002
}
  0
LINE
  5
3C2
330
18
100
AcDbEntity
  8
0
  6
Continuous
 62
     1
100
AcDbLine
 10
346.2953041197636
 20
275.0051329357434
 30
0.0
 11
349.7251518370487
 21
273.9515211803723
 31
0.0
1001
PHOENIX7010
1002
{
1070
    41
1040
2.0
1002
}
  0
LINE
  5
3C3
330
18
100
AcDbEntity
  8
0
  6
Continuous
 62
     1
100
AcDbLine
 10
349.7251518370487
 20
273.9515211803723
 30
0.0
 11
353.4516304137089
 21
277.162756226759
 31
0.0
1001
PHOENIX7010
1002
{
1070
    41
1040
2.0
1002
}
  0
LINE
  5
3C4
330
18
100
AcDbEntity
  8
0
  6
Continuous
 62
     1
100
AcDbLine
 10
353.4516304137089
 20
277.162756226759
 30
0.0
 11
359.2737358214237
 21
277.1579573375989
 31
0.0
1001
PHOENIX7010
1002
{
1070
    41
1040
2.0
1002
}
  0
LINE
  5
3C5
330
18
100
AcDbEntity
  8
0
  6
Continuous
 62
     1
100
AcDbLine
 10
359.2737358214237
 20
277.1579573375989
 30
0.0
 11
361.1399772765019
 21
279.6839888317395
 31
0.0
1001
PHOENIX7010
1002
{
1070
    41
1040
2.0
1002
}
  0
LINE
  5
3C6
330
18
100
AcDbEntity
  8
0
  6
Continuous
 62
     1
100
AcDbLine
 10
344.3072975279667
 20
273.028219483595
 30
0.0
 11
346.2953041197636
 21
275.0051329357434
 31
0.0
1001
PHOENIX7010
1002
{
1070
    41
1040
2.0
1002
}
  0
LINE
  5
3C7
330
18
100
AcDbEntity
  8
0
  6
Continuous
 62
     1
100
AcDbLine
 10
361.1399772765019
 20
279.6839888317395
 30
0.0
 11
362.9572990538456
 21
280.587431214552
 31
0.0
1001
PHOENIX7010
1002
{
1070
    41
1040
2.0
1002
}
  0
LINE
  5
3C8
102
{ACAD_REACTORS
330
32F
330
32C
102
}
330
18
100
AcDbEntity
  8
0
  6
Continuous
 62
     7
100
AcDbLine
 10
410.0067625401404
 20
319.1651747448255
 30
0.0
 11
396.106768643656
 21
319.1651747448255
 31
0.0
1001
PHOENIX7010
1002
{
1070
    41
1040
2.0
1002
}
  0
LINE
  5
3C9
102
{ACAD_REACTORS
330
32F
330
32C
102
}
330
18
100
AcDbEntity
  8
0
  6
Continuous
 62
     7
100
AcDbLine
 10
396.106768643656
 20
230.6901686413098
 30
0.0
 11
410.0067625401404
 21
230.6901686413098
 31
0.0
1001
PHOENIX7010
1002
{
1070
    41
1040
2.0
1002
}
  0
LINE
  5
3CA
102
{ACAD_REACTORS
330
32F
330
32C
102
}
330
18
100
AcDbEntity
  8
0
  6
Continuous
 62
     7
100
AcDbLine
 10
396.106768643656
 20
230.6901686413098
 30
0.0
 11
396.106768643656
 21
272.0104964000989
 31
0.0
1001
PHOENIX7010
1002
{
1070
    41
1040
2.0
1002
}
  0
LINE
  5
3CB
102
{ACAD_REACTORS
330
32F
330
32C
102
}
330
18
100
AcDbEntity
  8
0
  6
Continuous
 62
     7
100
AcDbLine
 10
396.106768643656
 20
274.5104964000989
 30
0.0
 11
396.106768643656
 21
319.1651442272473
 31
0.0
1001
PHOENIX7010
1002
{
1070
    41
1040
2.0
1002
}
  0
LINE
  5
3CE
102
{ACAD_REACTORS
330
32F
330
32C
102
}
330
18
100
AcDbEntity
  8
0
  6
Continuous
 62
     7
100
AcDbLine
 10
410.0067625401404
 20
230.6901686413098
 30
0.0
 11
410.0067625401404
 21
277.0291197521497
 31
0.0
1001
PHOENIX7010
1002
{
1070
    41
1040
2.0
1002
}
  0
LINE
  5
3D1
102
{ACAD_REACTORS
330
32F
330
32C
102
}
330
18
100
AcDbEntity
  8
0
  6
Continuous
 62
     7
100
AcDbLine
 10
410.0067625401404
 20
279.5291197521497
 30
0.0
 11
410.0067625401404
 21
319.1651442272473
 31
0.0
1001
PHOENIX7010
1002
{
1070
    41
1040
2.0
1002
}
  0
ARC
  5
3D2
330
18
100
AcDbEntity
  8
0
  6
Continuous
 62
     7
100
AcDbCircle
 10
400.5067625401403
 20
249.5276701671887
 30
0.0
 40
2.599999904632568
100
AcDbArc
 50
133.850189208987
 51
226.149810791013
1001
PHOENIX7010
1002
{
1070
    41
1040
2.0
1002
}
  0
ARC
  5
3D3
330
18
100
AcDbEntity
  8
0
  6
Continuous
 62
     7
100
AcDbCircle
 10
400.5067625401403
 20
249.5276701671887
 30
0.0
 40
2.599999904632568
100
AcDbArc
 50
313.8501892089871
 51
46.14981079101296
1001
PHOENIX7010
1002
{
1070
    41
1040
2.0
1002
}
  0
LINE
  5
3D4
330
18
100
AcDbEntity
  8
0
  6
Continuous
 62
     7
100
AcDbLine
 10
398.7055540440467
 20
251.4026701671888
 30
0.0
 11
402.3079862950232
 21
251.4026701671888
 31
0.0
1001
PHOENIX7010
1002
{
1070
    41
1040
2.0
1002
}
  0
LINE
  5
3D5
330
18
100
AcDbEntity
  8
0
  6
Continuous
 62
     7
100
AcDbLine
 10
398.7055540440467
 20
247.6526701671887
 30
0.0
 11
402.3079862950232
 21
247.6526701671887
 31
0.0
1001
PHOENIX7010
1002
{
1070
    41
1040
2.0
1002
}
  0
CIRCLE
  5
3D6
330
18
100
AcDbEntity
  8
0
  6
Continuous
 62
     7
100
AcDbCircle
 10
403.5067625401404
 20
241.8151686413098
 30
0.0
 40
1.25
1001
PHOENIX7010
1002
{
1070
    41
1040
2.0
1002
}
  0
CIRCLE
  5
3D7
330
18
100
AcDbEntity
  8
0
  6
ACAD_ISO02W100
 62
     5
100
AcDbCircle
 10
403.5067625401404
 20
241.8151686413098
 30
0.0
 40
2.25
1001
PHOENIX7010
1002
{
1070
    41
1040
2.0
1002
}
  0
CIRCLE
  5
3D8
330
18
100
AcDbEntity
  8
0
  6
Continuous
 62
     7
100
AcDbCircle
 10
403.5067625401404
 20
308.0401747448255
 30
0.0
 40
1.25
1001
PHOENIX7010
1002
{
1070
    41
1040
2.0
1002
}
  0
CIRCLE
  5
3D9
330
18
100
AcDbEntity
  8
0
  6
ACAD_ISO02W100
 62
     5
100
AcDbCircle
 10
403.5067625401404
 20
308.0401747448255
 30
0.0
 40
2.25
1001
PHOENIX7010
1002
{
1070
    41
1040
2.0
1002
}
  0
ARC
  5
3DA
330
18
100
AcDbEntity
  8
0
  6
Continuous
 62
     7
100
AcDbCircle
 10
400.5067625401403
 20
300.327665589552
 30
0.0
 40
2.599999904632568
100
AcDbArc
 50
133.850189208987
 51
226.149810791013
1001
PHOENIX7010
1002
{
1070
    41
1040
2.0
1002
}
  0
ARC
  5
3DB
330
18
100
AcDbEntity
  8
0
  6
Continuous
 62
     7
100
AcDbCircle
 10
400.5067625401403
 20
300.327665589552
 30
0.0
 40
2.599999904632568
100
AcDbArc
 50
313.8501892089871
 51
46.14981079101296
1001
PHOENIX7010
1002
{
1070
    41
1040
2.0
1002
}
  0
LINE
  5
3DC
330
18
100
AcDbEntity
  8
0
  6
Continuous
 62
     7
100
AcDbLine
 10
398.7055540440467
 20
302.202665589552
 30
0.0
 11
402.3079862950232
 21
302.202665589552
 31
0.0
1001
PHOENIX7010
1002
{
1070
    41
1040
2.0
1002
}
  0
LINE
  5
3DD
330
18
100
AcDbEntity
  8
0
  6
Continuous
 62
     7
100
AcDbLine
 10
398.7055540440467
 20
298.452665589552
 30
0.0
 11
402.3079862950232
 21
298.452665589552
 31
0.0
1001
PHOENIX7010
1002
{
1070
    41
1040
2.0
1002
}
  0
LINE
  5
3E6
330
18
100
AcDbEntity
  8
0
  6
Continuous
 62
     1
100
AcDbLine
 10
396.106768643656
 20
274.5104964000989
 30
0.0
 11
397.4234953282263
 21
275.3705504162121
 31
0.0
1001
PHOENIX7010
1002
{
1070
    41
1040
2.0
1002
}
  0
LINE
  5
3E7
330
18
100
AcDbEntity
  8
0
  6
Continuous
 62
     1
100
AcDbLine
 10
397.4234953282263
 20
275.3705504162121
 30
0.0
 11
400.6329832432654
 21
274.9677031261732
 31
0.0
1001
PHOENIX7010
1002
{
1070
    41
1040
2.0
1002
}
  0
LINE
  5
3E8
330
18
100
AcDbEntity
  8
0
  6
Continuous
 62
     1
100
AcDbLine
 10
400.6329832432654
 20
274.9677031261732
 30
0.0
 11
402.8652067540075
 21
276.6180937511731
 31
0.0
1001
PHOENIX7010
1002
{
1070
    41
1040
2.0
1002
}
  0
LINE
  5
3E9
330
18
100
AcDbEntity
  8
0
  6
Continuous
 62
     1
100
AcDbLine
 10
402.8652067540075
 20
276.6180937511731
 30
0.0
 11
408.106036221781
 21
277.4332487804699
 31
0.0
1001
PHOENIX7010
1002
{
1070
    41
1040
2.0
1002
}
  0
LINE
  5
3EA
330
18
100
AcDbEntity
  8
0
  6
Continuous
 62
     1
100
AcDbLine
 10
408.106036221781
 20
277.4332487804699
 30
0.0
 11
410.0067625401404
 21
279.5291197521497
 31
0.0
1001
PHOENIX7010
1002
{
1070
    41
1040
2.0
1002
}
  0
LINE
  5
3EB
102
{ACAD_REACTORS
330
333
330
32F
330
32C
102
}
330
18
100
AcDbEntity
  8
0
  6
Continuous
 62
     1
100
AcDbLine
 10
396.106768643656
 20
272.0104964000989
 30
0.0
 11
397.4234953282263
 21
272.8705504162122
 31
0.0
1001
PHOENIX7010
1002
{
1070
    41
1040
2.0
1002
}
  0
LINE
  5
3EC
102
{ACAD_REACTORS
330
333
330
32F
330
32C
102
}
330
18
100
AcDbEntity
  8
0
  6
Continuous
 62
     1
100
AcDbLine
 10
397.4234953282263
 20
272.8705504162122
 30
0.0
 11
400.6329832432654
 21
272.4677031261731
 31
0.0
1001
PHOENIX7010
1002
{
1070
    41
1040
2.0
1002
}
  0
LINE
  5
3ED
102
{ACAD_REACTORS
330
333
330
32F
330
32C
102
}
330
18
100
AcDbEntity
  8
0
  6
Continuous
 62
     1
100
AcDbLine
 10
400.6329832432654
 20
272.4677031261731
 30
0.0
 11
402.8652067540075
 21
274.1180937511732
 31
0.0
1001
PHOENIX7010
1002
{
1070
    41
1040
2.0
1002
}
  0
LINE
  5
3EE
102
{ACAD_REACTORS
330
333
330
32F
330
32C
102
}
330
18
100
AcDbEntity
  8
0
  6
Continuous
 62
     1
100
AcDbLine
 10
402.8652067540075
 20
274.1180937511732
 30
0.0
 11
408.106036221781
 21
274.93324878047
 31
0.0
1001
PHOENIX7010
1002
{
1070
    41
1040
2.0
1002
}
  0
LINE
  5
3EF
102
{ACAD_REACTORS
330
333
330
32F
330
32C
102
}
330
18
100
AcDbEntity
  8
0
  6
Continuous
 62
     1
100
AcDbLine
 10
408.106036221781
 20
274.93324878047
 30
0.0
 11
410.0067625401404
 21
277.0291197521497
 31
0.0
1001
PHOENIX7010
1002
{
1070
    41
1040
2.0
1002
}
  0
LINE
  5
3F0
330
18
100
AcDbEntity
  8
0
  6
Continuous
 62
     1
100
AcDbLine
 10
367.9572990538456
 20
230.6901686413098
 30
0.0
 11
367.9572990538456
 21
319.2151625377942
 31
0.0
1001
PHOENIX7010
1002
{
1070
    41
1040
2.0
1002
}
  0
LINE
  5
3F1
330
18
100
AcDbEntity
  8
0
  6
Continuous
 62
     1
100
AcDbLine
 10
362.9572990538456
 20
230.6901686413098
 30
0.0
 11
368.9572990538456
 21
230.6901686413098
 31
0.0
1001
PHOENIX7010
1002
{
1070
    41
1040
2.0
1002
}
  0
LINE
  5
3F2
330
18
100
AcDbEntity
  8
0
  6
Continuous
 62
     1
100
AcDbLine
 10
362.9572990538456
 20
319.2151625377942
 30
0.0
 11
368.9572990538456
 21
319.2151625377942
 31
0.0
1001
PHOENIX7010
1002
{
1070
    41
1040
2.0
1002
}
  0
LINE
  5
3F3
330
18
100
AcDbEntity
  8
0
  6
Continuous
 62
     1
100
AcDbLine
 10
367.9572990538456
 20
230.6901686413098
 30
0.0
 11
367.7288787962772
 21
232.4251959545422
 31
0.0
1001
PHOENIX7010
1002
{
1070
    41
1040
2.0
1002
}
  0
LINE
  5
3F4
330
18
100
AcDbEntity
  8
0
  6
Continuous
 62
     1
100
AcDbLine
 10
367.9572990538456
 20
230.6901686413098
 30
0.0
 11
368.185719311414
 21
232.4251959545422
 31
0.0
1001
PHOENIX7010
1002
{
1070
    41
1040
2.0
1002
}
  0
LINE
  5
3F5
330
18
100
AcDbEntity
  8
0
  6
Continuous
 62
     1
100
AcDbLine
 10
367.9572990538456
 20
319.2151625377942
 30
0.0
 11
367.7288787962772
 21
317.4801314098645
 31
0.0
1001
PHOENIX7010
1002
{
1070
    41
1040
2.0
1002
}
  0
LINE
  5
3F6
330
18
100
AcDbEntity
  8
0
  6
Continuous
 62
     1
100
AcDbLine
 10
367.9572990538456
 20
319.2151625377942
 30
0.0
 11
368.185719311414
 21
317.4801314098645
 31
0.0
1001
PHOENIX7010
1002
{
1070
    41
1040
2.0
1002
}
  0
TEXT
  5
3F7
330
18
100
AcDbEntity
  8
0
 62
     5
100
AcDbText
 10
367.4572990538456
 20
271.9526732189465
 30
0.0
 40
2.5
  1
  H  
 50
90.0
 72
     1
 11
367.4572990538456
 21
274.9526732189465
 31
0.0
100
AcDbText
1001
PHOENIX7010
1002
{
1070
    41
1040
2.0
1002
}
  0
LINE
  5
3F8
330
18
100
AcDbEntity
  8
0
  6
Continuous
 62
     1
100
AcDbLine
 10
415.0067625401404
 20
241.8151686413098
 30
0.0
 11
415.0067625401404
 21
308.0401747448255
 31
0.0
1001
PHOENIX7010
1002
{
1070
    41
1040
2.0
1002
}
  0
LINE
  5
3F9
330
18
100
AcDbEntity
  8
0
  6
Continuous
 62
     1
100
AcDbLine
 10
403.5067625401404
 20
241.8151686413098
 30
0.0
 11
416.0067625401404
 21
241.8151686413098
 31
0.0
1001
PHOENIX7010
1002
{
1070
    41
1040
2.0
1002
}
  0
LINE
  5
3FA
330
18
100
AcDbEntity
  8
0
  6
Continuous
 62
     1
100
AcDbLine
 10
403.5067625401404
 20
308.0401747448255
 30
0.0
 11
416.0067625401404
 21
308.0401747448255
 31
0.0
1001
PHOENIX7010
1002
{
1070
    41
1040
2.0
1002
}
  0
LINE
  5
3FB
330
18
100
AcDbEntity
  8
0
  6
Continuous
 62
     1
100
AcDbLine
 10
415.0067625401404
 20
241.8151686413098
 30
0.0
 11
414.7783384678747
 21
243.5501997692395
 31
0.0
1001
PHOENIX7010
1002
{
1070
    41
1040
2.0
1002
}
  0
LINE
  5
3FC
330
18
100
AcDbEntity
  8
0
  6
Continuous
 62
     1
100
AcDbLine
 10
415.0067625401404
 20
241.8151686413098
 30
0.0
 11
415.235186612406
 21
243.5501997692395
 31
0.0
1001
PHOENIX7010
1002
{
1070
    41
1040
2.0
1002
}
  0
LINE
  5
3FD
330
18
100
AcDbEntity
  8
0
  6
Continuous
 62
     1
100
AcDbLine
 10
415.0067625401404
 20
308.0401747448255
 30
0.0
 11
414.7783384678747
 21
306.3051436168958
 31
0.0
1001
PHOENIX7010
1002
{
1070
    41
1040
2.0
1002
}
  0
LINE
  5
3FE
330
18
100
AcDbEntity
  8
0
  6
Continuous
 62
     1
100
AcDbLine
 10
415.0067625401404
 20
308.0401747448255
 30
0.0
 11
415.235186612406
 21
306.3051436168958
 31
0.0
1001
PHOENIX7010
1002
{
1070
    41
1040
2.0
1002
}
  0
TEXT
  5
3FF
330
18
100
AcDbEntity
  8
0
 62
     5
100
AcDbText
 10
414.5067625401404
 20
272.0526793224621
 30
0.0
 40
2.5
  1
  C  
 50
90.0
 72
     1
 11
414.5067625401404
 21
274.9276793224622
 31
0.0
100
AcDbText
1001
PHOENIX7010
1002
{
1070
    41
1040
2.0
1002
}
  0
LINE
  5
400
330
18
100
AcDbEntity
  8
0
  6
Continuous
 62
     1
100
AcDbLine
 10
391.1067610142615
 20
300.327665589552
 30
0.0
 11
391.1067610142615
 21
319.1651442272473
 31
0.0
1001
PHOENIX7010
1002
{
1070
    41
1040
2.0
1002
}
  0
LINE
  5
401
330
18
100
AcDbEntity
  8
0
  6
Continuous
 62
     1
100
AcDbLine
 10
400.5067625401403
 20
300.327665589552
 30
0.0
 11
390.1067610142615
 21
300.327665589552
 31
0.0
1001
PHOENIX7010
1002
{
1070
    41
1040
2.0
1002
}
  0
LINE
  5
402
330
18
100
AcDbEntity
  8
0
  6
Continuous
 62
     1
100
AcDbLine
 10
396.106768643656
 20
319.1651442272473
 30
0.0
 11
390.1067610142615
 21
319.1651442272473
 31
0.0
1001
PHOENIX7010
1002
{
1070
    41
1040
2.0
1002
}
  0
LINE
  5
403
330
18
100
AcDbEntity
  8
0
  6
Continuous
 62
     1
100
AcDbLine
 10
391.1067610142615
 20
300.327665589552
 30
0.0
 11
390.8783369419959
 21
302.0626967174817
 31
0.0
1001
PHOENIX7010
1002
{
1070
    41
1040
2.0
1002
}
  0
LINE
  5
404
330
18
100
AcDbEntity
  8
0
  6
Continuous
 62
     1
100
AcDbLine
 10
391.1067610142615
 20
300.327665589552
 30
0.0
 11
391.3351850865272
 21
302.0626967174817
 31
0.0
1001
PHOENIX7010
1002
{
1070
    41
1040
2.0
1002
}
  0
LINE
  5
405
330
18
100
AcDbEntity
  8
0
  6
Continuous
 62
     1
100
AcDbLine
 10
391.1067610142615
 20
319.1651442272473
 30
0.0
 11
390.8783369419959
 21
317.4301130993177
 31
0.0
1001
PHOENIX7010
1002
{
1070
    41
1040
2.0
1002
}
  0
LINE
  5
406
330
18
100
AcDbEntity
  8
0
  6
Continuous
 62
     1
100
AcDbLine
 10
391.1067610142615
 20
319.1651442272473
 30
0.0
 11
391.3351850865272
 21
317.4301130993177
 31
0.0
1001
PHOENIX7010
1002
{
1070
    41
1040
2.0
1002
}
  0
TEXT
  5
407
330
18
100
AcDbEntity
  8
0
 62
     5
100
AcDbText
 10
390.6067610142615
 20
306.7464125377942
 30
0.0
 40
2.5
  1
37.7
 50
90.0
 72
     1
 11
390.6067610142615
 21
309.7464125377943
 31
0.0
100
AcDbText
1001
PHOENIX7010
1002
{
1070
    41
1040
2.0
1002
}
  0
LINE
  5
408
330
18
100
AcDbEntity
  8
0
  6
Continuous
 62
     1
100
AcDbLine
 10
391.1067610142615
 20
230.6901686413098
 30
0.0
 11
391.1067610142615
 21
249.5276701671887
 31
0.0
1001
PHOENIX7010
1002
{
1070
    41
1040
2.0
1002
}
  0
LINE
  5
409
330
18
100
AcDbEntity
  8
0
  6
Continuous
 62
     1
100
AcDbLine
 10
396.106768643656
 20
230.6901686413098
 30
0.0
 11
390.1067610142615
 21
230.6901686413098
 31
0.0
1001
PHOENIX7010
1002
{
1070
    41
1040
2.0
1002
}
  0
LINE
  5
40A
330
18
100
AcDbEntity
  8
0
  6
Continuous
 62
     1
100
AcDbLine
 10
400.5067625401403
 20
249.5276701671887
 30
0.0
 11
390.1067610142615
 21
249.5276701671887
 31
0.0
1001
PHOENIX7010
1002
{
1070
    41
1040
2.0
1002
}
  0
LINE
  5
40B
330
18
100
AcDbEntity
  8
0
  6
Continuous
 62
     1
100
AcDbLine
 10
391.1067610142615
 20
230.6901686413098
 30
0.0
 11
390.8783369419959
 21
232.4251959545422
 31
0.0
1001
PHOENIX7010
1002
{
1070
    41
1040
2.0
1002
}
  0
LINE
  5
40C
330
18
100
AcDbEntity
  8
0
  6
Continuous
 62
     1
100
AcDbLine
 10
391.1067610142615
 20
230.6901686413098
 30
0.0
 11
391.3351850865272
 21
232.4251959545422
 31
0.0
1001
PHOENIX7010
1002
{
1070
    41
1040
2.0
1002
}
  0
LINE
  5
40D
330
18
100
AcDbEntity
  8
0
  6
Continuous
 62
     1
100
AcDbLine
 10
391.1067610142615
 20
249.5276701671887
 30
0.0
 11
390.8783369419959
 21
247.7926390392591
 31
0.0
1001
PHOENIX7010
1002
{
1070
    41
1040
2.0
1002
}
  0
LINE
  5
40E
330
18
100
AcDbEntity
  8
0
  6
Continuous
 62
     1
100
AcDbLine
 10
391.1067610142615
 20
249.5276701671887
 30
0.0
 11
391.3351850865272
 21
247.7926390392591
 31
0.0
1001
PHOENIX7010
1002
{
1070
    41
1040
2.0
1002
}
  0
TEXT
  5
40F
330
18
100
AcDbEntity
  8
0
 62
     5
100
AcDbText
 10
390.6067610142615
 20
237.1089194042493
 30
0.0
 40
2.5
  1
37.7
 50
90.0
 72
     1
 11
390.6067610142615
 21
240.1089194042493
 31
0.0
100
AcDbText
1001
PHOENIX7010
1002
{
1070
    41
1040
2.0
1002
}
  0
LINE
  5
4BC
330
18
100
AcDbEntity
  8
0
  6
ACAD_ISO02W100
 62
     5
100
AcDbLine
 10
406.5567808506872
 20
319.1651442272473
 30
0.0
 11
406.5567808506872
 21
277.192281983595
 31
0.0
1001
PHOENIX7010
1002
{
1070
    41
1040
2.0
1002
}
  0
LINE
  5
4BE
330
18
100
AcDbEntity
  8
0
  6
ACAD_ISO02W100
 62
     5
100
AcDbLine
 10
407.8067808506872
 20
274.8867018444349
 30
0.0
 11
407.8067808506872
 21
230.6901686413098
 31
0.0
1001
PHOENIX7010
1002
{
1070
    41
1040
2.0
1002
}
  0
LINE
  5
4BF
330
18
100
AcDbEntity
  8
0
  6
ACAD_ISO02W100
 62
     5
100
AcDbLine
 10
406.5567808506872
 20
230.6901686413098
 30
0.0
 11
406.5567808506872
 21
274.692281983595
 31
0.0
1001
PHOENIX7010
1002
{
1070
    41
1040
2.0
1002
}
  0
LINE
  5
4C1
330
18
100
AcDbEntity
  8
0
  6
ACAD_ISO02W100
 62
     5
100
AcDbLine
 10
407.8067808506872
 20
274.8867018444349
 30
0.0
 11
407.8067808506872
 21
274.8867028048203
 31
0.0
1001
PHOENIX7010
1002
{
1070
    41
1040
2.0
1002
}
  0
LINE
  5
4C2
330
18
100
AcDbEntity
  8
0
  6
ACAD_ISO02W100
 62
     5
100
AcDbLine
 10
407.8067808506872
 20
277.3867028048203
 30
0.0
 11
407.8067808506872
 21
319.1651442272473
 31
0.0
1001
PHOENIX7010
1002
{
1070
    41
1040
2.0
1002
}
  0
TEXT
  5
4C4
330
18
100
AcDbEntity
  8
0
  6
Continuous
 62
     5
100
AcDbText
 10
418.714129642373
 20
275.1295759113319
 30
0.0
 40
1.875
  1
Diese Löcher nur bei Griff-Version/
 11
418.714129642373
 21
274.5670759113319
 31
0.0
100
AcDbText
 73
     1
1001
PHOENIX7010
1002
{
1070
    41
1040
2.0
1002
}
  0
TEXT
  5
4C5
330
18
100
AcDbEntity
  8
0
  6
Continuous
 62
     5
100
AcDbText
 10
418.714129642373
 20
271.5670759113319
 30
0.0
 40
1.875
  1
Only for the handle-version
 11
418.714129642373
 21
271.0045759113319
 31
0.0
100
AcDbText
 73
     1
1001
PHOENIX7010
1002
{
1070
    41
1040
2.0
1002
}
  0
LINE
  5
4C6
330
18
100
AcDbEntity
  8
0
  6
Continuous
 62
     1
100
AcDbLine
 10
403.5067625401404
 20
241.8151686413098
 30
0.0
 11
418.7872569547455
 21
274.4142896356176
 31
0.0
1001
PHOENIX7010
1002
{
1070
    41
1040
2.0
1002
}
  0
LINE
  5
4C7
330
18
100
AcDbEntity
  8
0
  6
Continuous
 62
     1
100
AcDbLine
 10
418.7872569547455
 20
274.4142896356176
 30
0.0
 11
458.9838760595115
 21
274.4142896356176
 31
0.0
1001
PHOENIX7010
1002
{
1070
    41
1040
2.0
1002
}
  0
LINE
  5
4C8
330
18
100
AcDbEntity
  8
0
  6
Continuous
 62
     1
100
AcDbLine
 10
418.9128243850081
 20
271.0264345625529
 30
0.0
 11
458.9838760595115
 21
271.0264345625529
 31
0.0
1001
PHOENIX7010
1002
{
1070
    41
1040
2.0
1002
}
  0
LINE
  5
4C9
330
18
100
AcDbEntity
  8
0
  6
Continuous
 62
     1
100
AcDbLine
 10
403.5067625401404
 20
308.0401747448255
 30
0.0
 11
418.7872569547455
 21
274.4142896356176
 31
0.0
1001
PHOENIX7010
1002
{
1070
    41
1040
2.0
1002
}
  0
LINE
  5
59F
102
{ACAD_REACTORS
330
5AE
102
}
330
18
100
AcDbEntity
  8
0
  6
Continuous
 62
     1
100
AcDbLine
 10
433.0460838124256
 20
141.6953929986584
 30
0.0
 11
433.0460838124256
 21
139.0287263319917
 31
0.0
1001
PHOENIX7010
1002
{
1070
    62
1070
     1
1070
    41
1040
1.5
1002
}
  0
LINE
  5
5A0
102
{ACAD_REACTORS
330
5AE
102
}
330
18
100
AcDbEntity
  8
0
  6
Continuous
 62
     3
100
AcDbLine
 10
556.379417145759
 20
141.6953929986584
 30
0.0
 11
293.0460838124258
 21
141.6953929986584
 31
0.0
1001
PHOENIX7010
1002
{
1070
    62
1070
     3
1070
    41
1040
1.5
1002
}
  0
LINE
  5
5A1
102
{ACAD_REACTORS
330
5AE
102
}
330
18
100
AcDbEntity
  8
0
  6
Continuous
 62
     1
100
AcDbLine
 10
363.0460838124258
 20
335.6953929986584
 30
0.0
 11
363.0460838124258
 21
333.0287263319917
 31
0.0
1001
PHOENIX7010
1002
{
1070
    62
1070
     1
1070
    41
1040
1.5
1002
}
  0
LINE
  5
5A2
102
{ACAD_REACTORS
330
5AE
102
}
330
18
100
AcDbEntity
  8
0
  6
Continuous
 62
     1
100
AcDbLine
 10
433.0460838124256
 20
335.6953929986584
 30
0.0
 11
433.0460838124256
 21
333.0287263319917
 31
0.0
1001
PHOENIX7010
1002
{
1070
    62
1070
     1
1070
    41
1040
1.5
1002
}
  0
LINE
  5
5A3
102
{ACAD_REACTORS
330
5AE
102
}
330
18
100
AcDbEntity
  8
0
  6
Continuous
 62
     1
100
AcDbLine
 10
363.0460838124258
 20
141.6953929986584
 30
0.0
 11
363.0460838124258
 21
139.0287263319917
 31
0.0
1001
PHOENIX7010
1002
{
1070
    62
1070
     1
1070
    41
1040
1.5
1002
}
  0
LINE
  5
5A4
102
{ACAD_REACTORS
330
5AE
102
}
330
18
100
AcDbEntity
  8
0
  6
Continuous
 62
     1
100
AcDbLine
 10
559.0460838124256
 20
139.0287263319917
 30
0.0
 11
280.379417145759
 21
139.0287263319917
 31
0.0
1001
PHOENIX7010
1002
{
1070
    62
1070
     1
1070
    41
1040
1.5
1002
}
  0
LINE
  5
5A5
102
{ACAD_REACTORS
330
5AE
102
}
330
18
100
AcDbEntity
  8
0
  6
Continuous
 62
     1
100
AcDbLine
 10
280.379417145759
 20
139.0287263319917
 30
0.0
 11
280.379417145759
 21
335.6953929986584
 31
0.0
1001
PHOENIX7010
1002
{
1070
    62
1070
     1
1070
    41
1040
1.5
1002
}
  0
LINE
  5
5A6
102
{ACAD_REACTORS
330
5AE
102
}
330
18
100
AcDbEntity
  8
0
  6
Continuous
 62
     1
100
AcDbLine
 10
280.379417145759
 20
335.6953929986584
 30
0.0
 11
559.0460838124256
 21
335.6953929986584
 31
0.0
1001
PHOENIX7010
1002
{
1070
    62
1070
     1
1070
    41
1040
1.5
1002
}
  0
LINE
  5
5A7
102
{ACAD_REACTORS
330
5AE
102
}
330
18
100
AcDbEntity
  8
0
  6
Continuous
 62
     1
100
AcDbLine
 10
559.0460838124256
 20
335.6953929986584
 30
0.0
 11
559.0460838124256
 21
139.0287263319917
 31
0.0
1001
PHOENIX7010
1002
{
1070
    62
1070
     1
1070
    41
1040
1.5
1002
}
  0
LINE
  5
5A8
102
{ACAD_REACTORS
330
5AE
102
}
330
18
100
AcDbEntity
  8
0
  6
Continuous
 62
     3
100
AcDbLine
 10
293.0460838124258
 20
141.6953929986584
 30
0.0
 11
293.0460838124258
 21
333.0287263319917
 31
0.0
1001
PHOENIX7010
1002
{
1070
    62
1070
     3
1070
    41
1040
1.5
1002
}
  0
LINE
  5
5A9
102
{ACAD_REACTORS
330
5AE
102
}
330
18
100
AcDbEntity
  8
0
  6
Continuous
 62
     3
100
AcDbLine
 10
293.0460838124258
 20
333.0287263319917
 30
0.0
 11
556.379417145759
 21
333.0287263319917
 31
0.0
1001
PHOENIX7010
1002
{
1070
    62
1070
     3
1070
    41
1040
1.5
1002
}
  0
LINE
  5
5AA
102
{ACAD_REACTORS
330
5AE
102
}
330
18
100
AcDbEntity
  8
0
  6
Continuous
 62
     3
100
AcDbLine
 10
556.379417145759
 20
333.0287263319917
 30
0.0
 11
556.379417145759
 21
141.6953929986584
 31
0.0
1001
PHOENIX7010
1002
{
1070
    62
1070
     3
1070
    41
1040
1.5
1002
}
  0
MTEXT
  5
5AB
102
{ACAD_REACTORS
330
5AE
102
}
330
18
100
AcDbEntity
  8
0
  6
Continuous
 62
     7
370
    50
100
AcDbMText
 10
292.8477419366997
 20
175.2910677180806
 30
0.0
 40
1.333333333333333
 41
0.0
 71
     7
 72
     5
  1
{\T1.1;\C1;"Schutzvermerk nach DIN ISO 16016 beachten" \Q20;"Please pay attention to copyright note DIN ISO 16016"}
 11
0.0000000000000002
 21
1.0
 31
0.0
 73
     1
 44
1.0
1001
PHOENIX7010
1002
{
1070
    41
1040
1.5
1002
}
1001
ACAD
1000
MTEXTBEGIN
1070
    73
1070
     1
1070
    44
1040
1.0
1070
    74
1070
     0
1000
MTEXTEND
  0
INSERT
  5
5AC
102
{ACAD_REACTORS
330
5AE
102
}
330
18
100
AcDbEntity
  8
0
  6
Continuous
 62
     1
100
AcDbBlockReference
  2
PH_GRPBLK
 10
433.0460838124256
 20
141.6953929986584
 30
0.0
 41
0.6666666666666666
 42
0.6666666666666666
 43
0.6666666666666666
1001
PHOENIX7010
1002
{
1070
    41
1040
1.5
1002
}
  0
HATCH
  5
24C8
102
{ACAD_REACTORS
330
2510
102
}
330
18
100
AcDbEntity
  8
0
  6
Continuous
 62
     1
370
    25
100
AcDbHatch
 10
0.0
 20
0.0
 30
0.0
210
0.0
220
0.0
230
1.0
  2
_U
 70
     0
 71
     1
 91
        1
 92
        0
 93
        5
 72
     1
 10
552.5961546427716
 20
156.7776620556486
 11
549.2461546427716
 21
152.8776620556486
 72
     1
 10
549.2461546427716
 20
152.8776620556486
 11
555.2461546427716
 21
152.8776620556486
 72
     1
 10
555.2461546427716
 20
152.8776620556486
 11
555.2461546427716
 21
156.7776620556487
 72
     1
 10
555.2461546427716
 20
156.7776620556485
 11
552.5961546427716
 21
153.3276620556486
 72
     1
 10
552.5961546427716
 20
153.3276620556487
 11
552.5961546427716
 21
156.7776620556487
 97
        1
330
250B
 75
     0
 76
     0
 52
45.0
 41
0.05
 77
     0
 78
     1
 53
45.0
 43
348.8794171457589
 44
123.1509665126232
 45
-0.0353553390593274
 46
0.0353553390593274
 79
     0
 98
        1
 10
348.8794171457589
 20
123.1509665126232
1001
PHOENIX7010
1002
{
1070
    41
1040
2.0
1002
}
  0
HATCH
  5
24C9
102
{ACAD_REACTORS
330
2510
102
}
330
18
100
AcDbEntity
  8
0
  6
Continuous
 62
     1
370
    25
100
AcDbHatch
 10
0.0
 20
0.0
 30
0.0
210
0.0
220
0.0
230
1.0
  2
_U
 70
     0
 71
     1
 91
        1
 92
        0
 93
        3
 72
     1
 10
548.8211546427717
 20
152.8776620556486
 11
548.8211546427717
 21
154.9526620556486
 72
     1
 10
548.8211546427717
 20
154.9526620556486
 11
550.8961546427717
 21
154.9526620556486
 72
     2
 10
548.8211546427717
 20
154.9526620556486
 40
2.074999999999988
 50
0.0000000000001962
 51
270.0
 73
     1
 97
        1
330
250C
 75
     0
 76
     0
 52
45.0
 41
0.325
 77
     0
 78
     1
 53
45.0
 43
348.8794171457589
 44
123.1509665126232
 45
-0.2298097038856279
 46
0.229809703885628
 79
     0
 98
        1
 10
348.8794171457589
 20
123.1509665126232
1001
PHOENIX7010
1002
{
1070
    41
1040
2.0
1002
}
  0
LINE
  5
24CA
102
{ACAD_REACTORS
330
2510
102
}
330
18
100
AcDbEntity
  8
0
  6
Continuous
 62
     7
370
    50
100
AcDbLine
 10
549.2461546427716
 20
152.8776620556486
 30
0.0
 11
555.2461546427716
 21
152.8776620556486
 31
0.0
1001
PHOENIX7010
1002
{
1070
    41
1040
2.0
1002
}
  0
LINE
  5
24CB
102
{ACAD_REACTORS
330
2510
102
}
330
18
100
AcDbEntity
  8
0
  6
Continuous
 62
     7
370
    50
100
AcDbLine
 10
555.2461546427716
 20
152.8776620556486
 30
0.0
 11
555.2461546427716
 21
156.7776620556485
 31
0.0
1001
PHOENIX7010
1002
{
1070
    41
1040
2.0
1002
}
  0
LINE
  5
24CC
102
{ACAD_REACTORS
330
2510
102
}
330
18
100
AcDbEntity
  8
0
  6
Continuous
 62
     7
370
    50
100
AcDbLine
 10
552.5961546427716
 20
153.3276620556486
 30
0.0
 11
552.5961546427716
 21
156.7776620556485
 31
0.0
1001
PHOENIX7010
1002
{
1070
    41
1040
2.0
1002
}
  0
LINE
  5
24CD
102
{ACAD_REACTORS
330
2510
102
}
330
18
100
AcDbEntity
  8
0
  6
Continuous
 62
     7
370
    50
100
AcDbLine
 10
552.5961546427716
 20
156.7776620556485
 30
0.0
 11
549.2461546427716
 21
152.8776620556486
 31
0.0
1001
PHOENIX7010
1002
{
1070
    41
1040
2.0
1002
}
  0
LINE
  5
24CE
102
{ACAD_REACTORS
330
2510
102
}
330
18
100
AcDbEntity
  8
0
  6
Continuous
 62
     7
370
    50
100
AcDbLine
 10
555.2461546427716
 20
156.7776620556485
 30
0.0
 11
552.5961546427716
 21
153.3276620556486
 31
0.0
1001
PHOENIX7010
1002
{
1070
    41
1040
2.0
1002
}
  0
INSERT
  5
24CF
102
{ACAD_REACTORS
330
2510
102
}
330
18
100
AcDbEntity
  8
0
  6
Continuous
 62
     1
370
    25
100
AcDbBlockReference
  2
PH_GRPBLK
 10
549.2461546427716
 20
152.8776620556486
 30
0.0
 41
0.5
 42
0.5
 43
0.5
1001
PHOENIX7010
1002
{
1070
    41
1040
2.0
1002
}
  0
MTEXT
  5
24D0
102
{ACAD_REACTORS
330
2511
102
}
330
18
100
AcDbEntity
  8
0
  6
Continuous
 62
     7
370
    50
100
AcDbMText
 10
539.4215354734917
 20
148.1371232986741
 30
0.0
 40
0.8
 41
0.0
 71
     7
 72
     5
  1
{\fArial|b0|i0|c0|p34;\W1.1;\C1;A Phoenix Mecano Company}
 73
     1
 44
1.0
1001
PHOENIX7010
1002
{
1070
    41
1040
2.0
1002
}
1001
ACAD
1000
MTEXTBEGIN
1070
    73
1070
     1
1070
    44
1040
1.0
1070
    74
1070
     0
1000
MTEXTEND
  0
MTEXT
  5
24D1
102
{ACAD_XDICTIONARY
360
2C43
102
}
102
{ACAD_REACTORS
330
2511
102
}
330
18
100
AcDbEntity
  8
0
  6
Continuous
 62
     7
370
    50
100
AcDbMText
 10
545.6623575045519
 20
149.9279826352971
 30
0.0
 40
1.85
 41
0.0
 71
     7
 72
     5
  1
{\fArial|b1|i0|c0|p34;\W1.1;BOPLA}
 73
     1
 44
1.135135135135135
1001
PHOENIX7010
1002
{
1070
    41
1040
2.0
1002
}
1001
ACAD
1000
MTEXTBEGIN
1070
    73
1070
     1
1070
    44
1040
1.135135135135135
1070
    74
1070
     0
1000
MTEXTEND
  0
INSERT
  5
24D2
102
{ACAD_REACTORS
330
2511
102
}
330
18
100
AcDbEntity
  8
0
  6
Continuous
 62
     7
370
    50
100
AcDbBlockReference
  2
PH_GRPBLK
 10
549.2461546427716
 20
152.8776620556486
 30
0.0
 41
0.5
 42
0.5
 43
0.5
1001
PHOENIX7010
1002
{
1070
    41
1040
2.0
1002
}
  0
MTEXT
  5
24D3
102
{ACAD_REACTORS
330
2512
102
}
330
18
100
AcDbEntity
  8
0
  6
Continuous
 62
     5
370
    35
100
AcDbMText
 10
508.3446662347955
 20
165.285843218594
 30
0.0
 40
1.75
 41
0.0
 71
     7
 72
     5
  1
{\C7;Katalogzeichnung/\Q20;Catalogue drawing}
 73
     1
 44
1.0
1001
PHOENIX7010
1002
{
1070
    41
1040
2.0
1002
}
1001
ACAD
1000
MTEXTBEGIN
1070
    73
1070
     1
1070
    44
1040
1.0
1070
    74
1070
     0
1000
MTEXTEND
  0
MTEXT
  5
24D4
102
{ACAD_REACTORS
330
2512
102
}
330
18
100
AcDbEntity
  8
0
  6
Continuous
 62
     5
370
    35
100
AcDbMText
 10
508.3446662347955
 20
168.7858432185939
 30
0.0
 40
2.0
 41
0.0
 71
     7
 72
     5
  1
{\C7;FL(G)/M 00 . 00}
 73
     1
 44
1.0
1001
PHOENIX7010
1002
{
1070
    41
1040
2.0
1002
}
1001
ACAD
1000
MTEXTBEGIN
1070
    73
1070
     1
1070
    44
1040
1.0
1070
    74
1070
     0
1000
MTEXTEND
  0
MTEXT
  5
24D5
102
{ACAD_REACTORS
330
2512
102
}
330
18
100
AcDbEntity
  8
0
  6
Continuous
 62
     5
370
    35
100
AcDbMText
 10
508.3446662347955
 20
172.285843218594
 30
0.0
 40
2.0
 41
0.0
 71
     7
 72
     5
  1
{\C7;Interzoll Modul}
 73
     1
 44
1.0
1001
PHOENIX7010
1002
{
1070
    41
1040
2.0
1002
}
1001
ACAD
1000
MTEXTBEGIN
1070
    73
1070
     1
1070
    44
1040
1.0
1070
    74
1070
     0
1000
MTEXTEND
  0
MTEXT
  5
24D6
102
{ACAD_REACTORS
330
2512
102
}
330
18
100
AcDbEntity
  8
0
  6
Continuous
 62
     5
370
    35
100
AcDbMText
 10
519.0331486942177
 20
186.7947720020702
 30
0.0
 40
2.0
 41
0.0
 71
     7
 72
     5
  1
{\C7;-}
 73
     1
 44
1.0
1001
PHOENIX7010
1002
{
1070
    41
1040
2.0
1002
}
1001
ACAD
1000
MTEXTBEGIN
1070
    73
1070
     1
1070
    44
1040
1.0
1070
    74
1070
     0
1000
MTEXTEND
  0
MTEXT
  5
24D7
102
{ACAD_REACTORS
330
2512
102
}
330
18
100
AcDbEntity
  8
0
  6
Continuous
 62
     5
370
    35
100
AcDbMText
 10
508.526555275253
 20
186.3187383949339
 30
0.0
 40
1.25
 41
0.0
 71
     7
 72
     5
  1
{\C1;Maßstab/\P\Q20;Scale:}
 73
     1
 44
1.0
1001
PHOENIX7010
1002
{
1070
    41
1040
2.0
1002
}
1001
ACAD
1000
MTEXTBEGIN
1070
    73
1070
     1
1070
    44
1040
1.0
1070
    74
1070
     0
1000
MTEXTEND
  0
MTEXT
  5
24D8
102
{ACAD_REACTORS
330
2512
102
}
330
18
100
AcDbEntity
  8
0
  6
Continuous
 62
     5
370
    35
100
AcDbMText
 10
508.6645236839554
 20
182.4846238951613
 30
0.0
 40
1.5
 41
0.0
 71
     7
 72
     5
  1
Zeichnungs-Nr. / {\Q20;Drawing-No.:}
 73
     1
 44
1.0
1001
PHOENIX7010
1002
{
1070
    41
1040
2.0
1002
}
1001
ACAD
1000
MTEXTBEGIN
1070
    73
1070
     1
1070
    44
1040
1.0
1070
    74
1070
     0
1000
MTEXTEND
  0
MTEXT
  5
24D9
102
{ACAD_REACTORS
330
2512
102
}
330
18
100
AcDbEntity
  8
0
  6
Continuous
 62
     5
370
    35
100
AcDbMText
 10
519.2199642542264
 20
179.4135453356862
 30
0.0
 40
2.0
 41
0.0
 71
     7
 72
     5
  1
{\C7;3K 5315.048.02}
 73
     1
 44
1.0
1001
PHOENIX7010
1002
{
1070
    41
1040
2.0
1002
}
1001
ACAD
1000
MTEXTBEGIN
1070
    73
1070
     1
1070
    44
1040
1.0
1070
    74
1070
     0
1000
MTEXTEND
  0
MTEXT
  5
24DA
102
{ACAD_REACTORS
330
2512
102
}
330
18
100
AcDbEntity
  8
0
  6
Continuous
 62
     5
370
    35
100
AcDbMText
 10
508.3194472648419
 20
175.4098738344769
 30
0.0
 40
2.0
 41
0.0
 71
     7
 72
     5
  1
{\C7;Artikel / \Q20;Article:}
 73
     1
 44
1.0
1001
PHOENIX7010
1002
{
1070
    41
1040
2.0
1002
}
1001
ACAD
1000
MTEXTBEGIN
1070
    73
1070
     1
1070
    44
1040
1.0
1070
    74
1070
     0
1000
MTEXTEND
  0
MTEXT
  5
24DB
102
{ACAD_REACTORS
330
2512
102
}
330
18
100
AcDbEntity
  8
0
  6
Continuous
 62
     5
370
    35
100
AcDbMText
 10
513.675334166708
 20
146.8569143946138
 30
0.0
 40
1.0
 41
0.0
 71
     7
 72
     5
  1
{\C1;Datum/\P\Q20;Date:}
 73
     1
 44
1.0
1001
PHOENIX7010
1002
{
1070
    41
1040
2.0
1002
}
1001
ACAD
1000
MTEXTBEGIN
1070
    73
1070
     1
1070
    44
1040
1.0
1070
    74
1070
     0
1000
MTEXTEND
  0
MTEXT
  5
24DC
102
{ACAD_REACTORS
330
2512
102
}
330
18
100
AcDbEntity
  8
0
  6
Continuous
 62
     5
370
    35
100
AcDbMText
 10
506.9632962742303
 20
146.8569125639264
 30
0.0
 40
1.0
 41
0.0
 71
     7
 72
     5
  1
{\C1;Ä.Nr/\P\Q20;Alt-No.:}
 73
     1
 44
1.0
1001
PHOENIX7010
1002
{
1070
    41
1040
2.0
1002
}
1001
ACAD
1000
MTEXTBEGIN
1070
    73
1070
     1
1070
    44
1040
1.0
1070
    74
1070
     0
1000
MTEXTEND
  0
MTEXT
  5
24DD
102
{ACAD_REACTORS
330
2512
102
}
330
18
100
AcDbEntity
  8
0
  6
Continuous
 62
     5
370
    35
100
AcDbMText
 10
519.9883500586174
 20
144.4983538317281
 30
0.0
 40
1.25
 41
0.0
 71
     7
 72
     5
  1
2 901 858
 73
     1
 44
1.0
1001
PHOENIX7010
1002
{
1070
    41
1040
2.0
1002
}
1001
ACAD
1000
MTEXTBEGIN
1070
    73
1070
     1
1070
    44
1040
1.0
1070
    74
1070
     0
1000
MTEXTEND
  0
MTEXT
  5
24DE
102
{ACAD_REACTORS
330
2512
102
}
330
18
100
AcDbEntity
  8
0
  6
Continuous
 62
     5
370
    35
100
AcDbMText
 10
507.1439127781059
 20
144.4427706341489
 30
0.0
 40
1.25
 41
0.0
 71
     7
 72
     5
  1
DISK:
 73
     1
 44
1.0
1001
PHOENIX7010
1002
{
1070
    41
1040
2.0
1002
}
1001
ACAD
1000
MTEXTBEGIN
1070
    73
1070
     1
1070
    44
1040
1.0
1070
    74
1070
     0
1000
MTEXTEND
  0
MTEXT
  5
24DF
102
{ACAD_REACTORS
330
2512
102
}
330
18
100
AcDbEntity
  8
0
  6
Continuous
 62
     5
370
    35
100
AcDbMText
 10
519.9883500586174
 20
142.3198367602522
 30
0.0
 40
1.25
 41
0.0
 71
     7
 72
     5
  1
18.06.99 HR
 73
     1
 44
1.0
1001
PHOENIX7010
1002
{
1070
    41
1040
2.0
1002
}
1001
ACAD
1000
MTEXTBEGIN
1070
    73
1070
     1
1070
    44
1040
1.0
1070
    74
1070
     0
1000
MTEXTEND
  0
MTEXT
  5
24E0
102
{ACAD_REACTORS
330
2512
102
}
330
18
100
AcDbEntity
  8
0
  6
Continuous
 62
     5
370
    35
100
AcDbMText
 10
507.1439127781059
 20
142.3198367602522
 30
0.0
 40
1.25
 41
0.0
 71
     7
 72
     5
  1
Datum/{\Q20;Date:}
 73
     1
 44
1.0
1001
PHOENIX7010
1002
{
1070
    41
1040
2.0
1002
}
1001
ACAD
1000
MTEXTBEGIN
1070
    73
1070
     1
1070
    44
1040
1.0
1070
    74
1070
     0
1000
MTEXTEND
  0
LINE
  5
24E1
102
{ACAD_REACTORS
330
2512
102
}
330
18
100
AcDbEntity
  8
0
  6
Continuous
 62
     5
370
    35
100
AcDbLine
 10
506.3794171457589
 20
146.4453929986584
 30
0.0
 11
556.3794171457589
 21
146.4453929986584
 31
0.0
1001
PHOENIX7010
1002
{
1070
    41
1040
2.0
1002
}
  0
LINE
  5
24E2
102
{ACAD_REACTORS
330
2512
102
}
330
18
100
AcDbEntity
  8
0
  6
Continuous
 62
     5
100
AcDbLine
 10
551.6294171457588
 20
185.4453929986584
 30
0.0
 11
551.6294171457588
 21
188.9453929986584
 31
0.0
1001
PHOENIX7010
1002
{
1070
    62
1070
     5
1070
    41
1040
2.0
1002
}
  0
LINE
  5
24E3
102
{ACAD_REACTORS
330
2512
102
}
330
18
100
AcDbEntity
  8
0
  6
ACAD_ISO04W100
 62
     1
 48
0.1451612903225806
100
AcDbLine
 10
554.1294171457589
 20
184.9453929986584
 30
0.0
 11
554.1294171457589
 21
189.4453929986584
 31
0.0
1001
PHOENIX7010
1002
{
1070
    62
1070
     1
1070
    41
1040
2.0
1002
}
  0
CIRCLE
  5
24E4
102
{ACAD_REACTORS
330
2512
102
}
330
18
100
AcDbEntity
  8
0
  6
Continuous
 62
     5
100
AcDbCircle
 10
554.1294171457589
 20
187.1953929986584
 30
0.0
 40
0.875
1001
PHOENIX7010
1002
{
1070
    62
1070
     5
1070
    41
1040
2.0
1002
}
  0
CIRCLE
  5
24E5
102
{ACAD_REACTORS
330
2512
102
}
330
18
100
AcDbEntity
  8
0
  6
Continuous
 62
     5
100
AcDbCircle
 10
554.1294171457589
 20
187.1953929986584
 30
0.0
 40
1.75
1001
PHOENIX7010
1002
{
1070
    62
1070
     5
1070
    41
1040
2.0
1002
}
  0
LINE
  5
24E6
102
{ACAD_REACTORS
330
2512
102
}
330
18
100
AcDbEntity
  8
0
  6
Continuous
 62
     5
100
AcDbLine
 10
548.1294171457589
 20
186.3203929986584
 30
0.0
 11
548.1294171457589
 21
188.0703929986584
 31
0.0
1001
PHOENIX7010
1002
{
1070
    62
1070
     5
1070
    41
1040
2.0
1002
}
  0
LINE
  5
24E7
102
{ACAD_REACTORS
330
2512
102
}
330
18
100
AcDbEntity
  8
0
  6
ACAD_ISO04W100
 62
     1
 48
0.282258064516129
100
AcDbLine
 10
556.3794171457589
 20
187.1953929986584
 30
0.0
 11
547.6294171457588
 21
187.1953929986584
 31
0.0
1001
PHOENIX7010
1002
{
1070
    62
1070
     1
1070
    41
1040
2.0
1002
}
  0
LINE
  5
24E8
102
{ACAD_REACTORS
330
2512
102
}
330
18
100
AcDbEntity
  8
0
  6
Continuous
 62
     5
100
AcDbLine
 10
551.6294171457588
 20
185.4453929986584
 30
0.0
 11
548.1294171457589
 21
186.3203929986584
 31
0.0
1001
PHOENIX7010
1002
{
1070
    62
1070
     5
1070
    41
1040
2.0
1002
}
  0
LINE
  5
24E9
102
{ACAD_REACTORS
330
2512
102
}
330
18
100
AcDbEntity
  8
0
  6
Continuous
 62
     5
100
AcDbLine
 10
551.6294171457588
 20
188.9453929986584
 30
0.0
 11
548.1294171457589
 21
188.0703929986584
 31
0.0
1001
PHOENIX7010
1002
{
1070
    62
1070
     5
1070
    41
1040
2.0
1002
}
  0
ARC
  5
24EA
102
{ACAD_REACTORS
330
2512
102
}
330
18
100
AcDbEntity
  8
0
  6
Continuous
 62
     5
100
AcDbCircle
 10
507.6294171457589
 20
183.6953929986584
 30
0.0
 40
1.25
100
AcDbArc
 50
90.0
 51
180.0
1001
PHOENIX7010
1002
{
1070
    62
1070
     5
1070
    41
1040
2.0
1002
}
  0
ARC
  5
24EB
102
{ACAD_REACTORS
330
2512
102
}
330
18
100
AcDbEntity
  8
0
  6
Continuous
 62
     5
100
AcDbCircle
 10
507.6294171457589
 20
189.1953929986584
 30
0.0
 40
1.25
100
AcDbArc
 50
90.0
 51
180.0
1001
PHOENIX7010
1002
{
1070
    62
1070
     5
1070
    41
1040
2.0
1002
}
  0
LINE
  5
24EC
102
{ACAD_REACTORS
330
2512
102
}
330
18
100
AcDbEntity
  8
0
  6
Continuous
 62
     5
100
AcDbLine
 10
556.3794171457589
 20
184.9453929986584
 30
0.0
 11
507.6294171457589
 21
184.9453929986584
 31
0.0
1001
PHOENIX7010
1002
{
1070
    62
1070
     5
1070
    41
1040
2.0
1002
}
  0
LINE
  5
24ED
102
{ACAD_REACTORS
330
2512
102
}
330
18
100
AcDbEntity
  8
0
  6
Continuous
 62
     5
100
AcDbLine
 10
556.3794171457589
 20
190.4453929986584
 30
0.0
 11
507.6294171457589
 21
190.4453929986584
 31
0.0
1001
PHOENIX7010
1002
{
1070
    62
1070
     5
1070
    41
1040
2.0
1002
}
  0
LINE
  5
24EE
102
{ACAD_REACTORS
330
2512
102
}
330
18
100
AcDbEntity
  8
0
  6
Continuous
 62
     5
100
AcDbLine
 10
523.8794171457588
 20
163.1953929986584
 30
0.0
 11
523.8794171457588
 21
146.4453929986584
 31
0.0
1001
PHOENIX7010
1002
{
1070
    62
1070
     5
1070
    41
1040
2.0
1002
}
  0
TEXT
  5
24EF
102
{ACAD_REACTORS
330
2512
102
}
330
18
100
AcDbEntity
  8
0
  6
Continuous
 62
     1
100
AcDbText
 10
513.3794169956249
 20
160.5703929061652
 30
0.0
 40
1.0
  1
-
 41
1.5
100
AcDbText
1001
PHOENIX7010
1002
{
1070
    62
1070
     1
1070
    41
1040
2.0
1002
}
  0
TEXT
  5
24F0
102
{ACAD_REACTORS
330
2512
102
}
330
18
100
AcDbEntity
  8
0
  6
Continuous
 62
     1
100
AcDbText
 10
513.3794169956249
 20
159.3203929061652
 30
0.0
 40
1.0
  1
-
 41
1.5
100
AcDbText
1001
PHOENIX7010
1002
{
1070
    62
1070
     1
1070
    41
1040
2.0
1002
}
  0
TEXT
  5
24F1
102
{ACAD_REACTORS
330
2512
102
}
330
18
100
AcDbEntity
  8
0
  6
Continuous
 62
     1
100
AcDbText
 10
513.3794169956249
 20
161.8203929061652
 30
0.0
 40
1.0
  1
-
 41
1.5
100
AcDbText
1001
PHOENIX7010
1002
{
1070
    62
1070
     1
1070
    41
1040
2.0
1002
}
  0
TEXT
  5
24F2
102
{ACAD_REACTORS
330
2512
102
}
330
18
100
AcDbEntity
  8
0
  6
Continuous
 62
     1
100
AcDbText
 10
506.8794169956249
 20
160.5703929061652
 30
0.0
 40
1.0
  1
-
 41
1.5
100
AcDbText
1001
PHOENIX7010
1002
{
1070
    62
1070
     1
1070
    41
1040
2.0
1002
}
  0
TEXT
  5
24F3
102
{ACAD_REACTORS
330
2512
102
}
330
18
100
AcDbEntity
  8
0
  6
Continuous
 62
     1
100
AcDbText
 10
506.8794169956249
 20
159.3203929061652
 30
0.0
 40
1.0
  1
-
 41
1.5
100
AcDbText
1001
PHOENIX7010
1002
{
1070
    62
1070
     1
1070
    41
1040
2.0
1002
}
  0
TEXT
  5
24F4
102
{ACAD_REACTORS
330
2512
102
}
330
18
100
AcDbEntity
  8
0
  6
Continuous
 62
     1
100
AcDbText
 10
506.8794169956249
 20
161.8203929061652
 30
0.0
 40
1.0
  1
-
 41
1.5
100
AcDbText
1001
PHOENIX7010
1002
{
1070
    62
1070
     1
1070
    41
1040
2.0
1002
}
  0
ARC
  5
24F5
102
{ACAD_REACTORS
330
2512
102
}
330
18
100
AcDbEntity
  8
0
  6
Continuous
 62
     5
100
AcDbCircle
 10
507.6294171457589
 20
161.9453929986584
 30
0.0
 40
1.25
100
AcDbArc
 50
90.0
 51
180.0
1001
PHOENIX7010
1002
{
1070
    62
1070
     5
1070
    41
1040
2.0
1002
}
  0
ARC
  5
24F6
102
{ACAD_REACTORS
330
2512
102
}
330
18
100
AcDbEntity
  8
0
  6
Continuous
 62
     5
100
AcDbCircle
 10
507.6294171457589
 20
177.1953929986584
 30
0.0
 40
1.25
100
AcDbArc
 50
90.0
 51
180.0
1001
PHOENIX7010
1002
{
1070
    62
1070
     5
1070
    41
1040
2.0
1002
}
  0
TEXT
  5
24F7
102
{ACAD_REACTORS
330
2512
102
}
330
18
100
AcDbEntity
  8
0
  6
Continuous
 62
     1
100
AcDbText
 10
513.3794169956249
 20
151.8203929061652
 30
0.0
 40
1.0
  1
-
 41
1.5
100
AcDbText
1001
PHOENIX7010
1002
{
1070
    62
1070
     1
1070
    41
1040
2.0
1002
}
  0
TEXT
  5
24F8
102
{ACAD_REACTORS
330
2512
102
}
330
18
100
AcDbEntity
  8
0
  6
Continuous
 62
     1
100
AcDbText
 10
513.3794169956249
 20
150.5703929061652
 30
0.0
 40
1.0
  1
07.03.2014
 41
1.5
100
AcDbText
1001
PHOENIX7010
1002
{
1070
    62
1070
     1
1070
    41
1040
2.0
1002
}
  0
TEXT
  5
24F9
102
{ACAD_REACTORS
330
2512
102
}
330
18
100
AcDbEntity
  8
0
  6
Continuous
 62
     1
100
AcDbText
 10
513.3794169956249
 20
154.3203929061652
 30
0.0
 40
1.0
  1
-
 41
1.5
100
AcDbText
1001
PHOENIX7010
1002
{
1070
    62
1070
     1
1070
    41
1040
2.0
1002
}
  0
TEXT
  5
24FA
102
{ACAD_REACTORS
330
2512
102
}
330
18
100
AcDbEntity
  8
0
  6
Continuous
 62
     1
100
AcDbText
 10
513.3794169956249
 20
153.0703929061652
 30
0.0
 40
1.0
  1
-
 41
1.5
100
AcDbText
1001
PHOENIX7010
1002
{
1070
    62
1070
     1
1070
    41
1040
2.0
1002
}
  0
TEXT
  5
24FB
102
{ACAD_REACTORS
330
2512
102
}
330
18
100
AcDbEntity
  8
0
  6
Continuous
 62
     1
100
AcDbText
 10
513.3794169956249
 20
155.5703929061652
 30
0.0
 40
1.0
  1
-
 41
1.5
100
AcDbText
1001
PHOENIX7010
1002
{
1070
    62
1070
     1
1070
    41
1040
2.0
1002
}
  0
TEXT
  5
24FC
102
{ACAD_REACTORS
330
2512
102
}
330
18
100
AcDbEntity
  8
0
  6
Continuous
 62
     1
100
AcDbText
 10
513.3794169956249
 20
156.8203929061652
 30
0.0
 40
1.0
  1
-
 41
1.5
100
AcDbText
1001
PHOENIX7010
1002
{
1070
    62
1070
     1
1070
    41
1040
2.0
1002
}
  0
TEXT
  5
24FD
102
{ACAD_REACTORS
330
2512
102
}
330
18
100
AcDbEntity
  8
0
  6
Continuous
 62
     1
100
AcDbText
 10
513.3794169956249
 20
158.0703929061652
 30
0.0
 40
1.0
  1
-
 41
1.5
100
AcDbText
1001
PHOENIX7010
1002
{
1070
    62
1070
     1
1070
    41
1040
2.0
1002
}
  0
TEXT
  5
24FE
102
{ACAD_REACTORS
330
2512
102
}
330
18
100
AcDbEntity
  8
0
  6
Continuous
 62
     1
100
AcDbText
 10
506.8794169956249
 20
151.8203929061652
 30
0.0
 40
1.0
  1
-
 41
1.5
100
AcDbText
1001
PHOENIX7010
1002
{
1070
    62
1070
     1
1070
    41
1040
2.0
1002
}
  0
TEXT
  5
24FF
102
{ACAD_REACTORS
330
2512
102
}
330
18
100
AcDbEntity
  8
0
  6
Continuous
 62
     1
100
AcDbText
 10
506.8794169956249
 20
150.5703929061652
 30
0.0
 40
1.0
  1
4086
 41
1.5
100
AcDbText
1001
PHOENIX7010
1002
{
1070
    62
1070
     1
1070
    41
1040
2.0
1002
}
  0
TEXT
  5
2500
102
{ACAD_REACTORS
330
2512
102
}
330
18
100
AcDbEntity
  8
0
  6
Continuous
 62
     1
100
AcDbText
 10
506.8794169956249
 20
154.3203929061652
 30
0.0
 40
1.0
  1
-
 41
1.5
100
AcDbText
1001
PHOENIX7010
1002
{
1070
    62
1070
     1
1070
    41
1040
2.0
1002
}
  0
TEXT
  5
2501
102
{ACAD_REACTORS
330
2512
102
}
330
18
100
AcDbEntity
  8
0
  6
Continuous
 62
     1
100
AcDbText
 10
506.8794169956249
 20
153.0703929061652
 30
0.0
 40
1.0
  1
-
 41
1.5
100
AcDbText
1001
PHOENIX7010
1002
{
1070
    62
1070
     1
1070
    41
1040
2.0
1002
}
  0
TEXT
  5
2502
102
{ACAD_REACTORS
330
2512
102
}
330
18
100
AcDbEntity
  8
0
  6
Continuous
 62
     1
100
AcDbText
 10
506.8794169956249
 20
155.5703929061652
 30
0.0
 40
1.0
  1
-
 41
1.5
100
AcDbText
1001
PHOENIX7010
1002
{
1070
    62
1070
     1
1070
    41
1040
2.0
1002
}
  0
TEXT
  5
2503
102
{ACAD_REACTORS
330
2512
102
}
330
18
100
AcDbEntity
  8
0
  6
Continuous
 62
     1
100
AcDbText
 10
506.8794169956249
 20
156.8203929061652
 30
0.0
 40
1.0
  1
-
 41
1.5
100
AcDbText
1001
PHOENIX7010
1002
{
1070
    62
1070
     1
1070
    41
1040
2.0
1002
}
  0
TEXT
  5
2504
102
{ACAD_REACTORS
330
2512
102
}
330
18
100
AcDbEntity
  8
0
  6
Continuous
 62
     1
100
AcDbText
 10
506.8794169956249
 20
158.0703929061652
 30
0.0
 40
1.0
  1
-
 41
1.5
100
AcDbText
1001
PHOENIX7010
1002
{
1070
    62
1070
     1
1070
    41
1040
2.0
1002
}
  0
LINE
  5
2505
102
{ACAD_REACTORS
330
2512
102
}
330
18
100
AcDbEntity
  8
0
  6
Continuous
 62
     1
100
AcDbLine
 10
512.8794171457589
 20
163.1953929986584
 30
0.0
 11
512.8794171457589
 21
146.4453929986584
 31
0.0
1001
PHOENIX7010
1002
{
1070
    62
1070
     1
1070
    41
1040
2.0
1002
}
  0
LINE
  5
2506
102
{ACAD_REACTORS
330
2512
102
}
330
18
100
AcDbEntity
  8
0
  6
Continuous
 62
     1
100
AcDbLine
 10
506.3794171457589
 20
149.9453929986584
 30
0.0
 11
523.8794171457588
 21
149.9453929986584
 31
0.0
1001
PHOENIX7010
1002
{
1070
    62
1070
     1
1070
    41
1040
2.0
1002
}
  0
LINE
  5
2507
102
{ACAD_REACTORS
330
2512
102
}
330
18
100
AcDbEntity
  8
0
  6
Continuous
 62
     5
100
AcDbLine
 10
556.3794171457589
 20
178.4453929986584
 30
0.0
 11
507.6294171457589
 21
178.4453929986584
 31
0.0
1001
PHOENIX7010
1002
{
1070
    62
1070
     5
1070
    41
1040
2.0
1002
}
  0
LINE
  5
2508
102
{ACAD_REACTORS
330
2512
102
}
330
18
100
AcDbEntity
  8
0
  6
Continuous
 62
     5
100
AcDbLine
 10
556.3794171457589
 20
163.1953929986584
 30
0.0
 11
507.6294171457589
 21
163.1953929986584
 31
0.0
1001
PHOENIX7010
1002
{
1070
    62
1070
     5
1070
    41
1040
2.0
1002
}
  0
LINE
  5
2509
102
{ACAD_REACTORS
330
2512
102
}
330
18
100
AcDbEntity
  8
0
  6
Continuous
 62
     5
100
AcDbLine
 10
506.3794171457589
 20
189.1953929986584
 30
0.0
 11
506.3794171457589
 21
141.6953929986584
 31
0.0
1001
PHOENIX7010
1002
{
1070
    62
1070
     5
1070
    41
1040
2.0
1002
}
  0
INSERT
  5
250A
102
{ACAD_REACTORS
330
2512
102
}
330
18
100
AcDbEntity
  8
0
  6
Continuous
 62
     5
370
    35
100
AcDbBlockReference
  2
PH_GRPBLK
 10
506.3794171457589
 20
146.4453929986584
 30
0.0
 41
0.5
 42
0.5
 43
0.5
1001
PHOENIX7010
1002
{
1070
    41
1040
2.0
1002
}
  0
LWPOLYLINE
  5
250B
102
{ACAD_REACTORS
330
24C8
102
}
330
18
100
AcDbEntity
  8
0
  6
Continuous
 62
     7
 60
     1
370
    50
100
AcDbPolyline
 90
        5
 70
     1
 43
0.0
 10
552.5961546427716
 20
156.7776620556486
 10
549.2461546427716
 20
152.8776620556486
 10
555.2461546427716
 20
152.8776620556486
 10
555.2461546427716
 20
156.7776620556485
 10
552.5961546427716
 20
153.3276620556487
1001
PHOENIX7010
1002
{
1070
    41
1040
2.0
1002
}
  0
LWPOLYLINE
  5
250C
102
{ACAD_REACTORS
330
24C9
102
}
330
18
100
AcDbEntity
  8
0
  6
Continuous
 62
     7
 60
     1
370
    50
100
AcDbPolyline
 90
        3
 70
     1
 43
0.0
 10
548.8211546427717
 20
152.8776620556486
 10
548.8211546427717
 20
154.9526620556486
 10
550.8961546427717
 20
154.9526620556486
 42
2.414213562373094
1001
PHOENIX7010
1002
{
1070
    41
1040
2.0
1002
}
  0
LINE
  5
277D
102
{ACAD_REACTORS
330
286C
102
}
330
18
100
AcDbEntity
  8
0
  6
Continuous
 62
     1
100
AcDbLine
 10
304.3061060260609
 20
155.8249843576293
 30
0.0
 11
364.4960121084156
 21
155.8249843576293
 31
0.0
1001
PHOENIX7010
1002
{
1070
    41
1040
2.0
1070
    62
1070
     1
1002
}
  0
LINE
  5
277F
102
{ACAD_REACTORS
330
286C
102
}
330
18
100
AcDbEntity
  8
0
  6
Continuous
 62
     1
100
AcDbLine
 10
304.3061060260609
 20
159.9899843576293
 30
0.0
 11
364.4960121084156
 21
159.9899843576293
 31
0.0
1001
PHOENIX7010
1002
{
1070
    41
1040
2.0
1070
    62
1070
     1
1002
}
  0
LINE
  5
2780
102
{ACAD_REACTORS
330
286C
102
}
330
18
100
AcDbEntity
  8
0
  6
Continuous
 62
     1
100
AcDbLine
 10
304.3061060260609
 20
164.1549843576292
 30
0.0
 11
364.4960121084156
 21
164.1549843576292
 31
0.0
1001
PHOENIX7010
1002
{
1070
    41
1040
2.0
1070
    62
1070
     1
1002
}
  0
MTEXT
  5
2781
102
{ACAD_REACTORS
330
286C
102
}
330
18
100
AcDbEntity
  8
0
  6
Continuous
 62
     5
100
AcDbMText
 10
305.6150316351245
 20
167.6914987205023
 30
0.0
 40
2.5
 41
43.29980783089957
 71
     1
 72
     5
  1
Modell\PFL/M 00300\PFL/M 00600
 73
     1
 44
1.0
1001
PHOENIX7010
1002
{
1070
    41
1040
2.0
1070
    62
1070
     5
1002
}
1001
ACAD
1000
MTEXTBEGIN
1070
    73
1070
     1
1070
    44
1040
1.0
1070
    74
1070
     0
1000
MTEXTEND
  0
MTEXT
  5
2782
102
{ACAD_REACTORS
330
286C
102
}
330
18
100
AcDbEntity
  8
0
  6
Continuous
 62
     5
100
AcDbMText
 10
339.8694145866809
 20
167.6914987205023
 30
0.0
 40
2.5
 41
27.5
 71
     1
 72
     5
  1
HE\P3\P6
 73
     1
 44
1.0
1001
PHOENIX7010
1002
{
1070
    41
1040
2.0
1070
    62
1070
     5
1002
}
1001
ACAD
1000
MTEXTBEGIN
1070
    73
1070
     1
1070
    44
1040
1.0
1070
    74
1070
     0
1000
MTEXTEND
  0
MTEXT
  5
2783
102
{ACAD_REACTORS
330
286C
102
}
330
18
100
AcDbEntity
  8
0
  6
Continuous
 62
     5
100
AcDbMText
 10
349.7744390495311
 20
167.6914987205023
 30
0.0
 40
2.5
 41
27.5
 71
     1
 72
     5
  1
H\P132,6\P265,9
 73
     1
 44
1.0
1001
PHOENIX7010
1002
{
1070
    41
1040
2.0
1070
    62
1070
     5
1002
}
1001
ACAD
1000
MTEXTBEGIN
1070
    73
1070
     1
1070
    44
1040
1.0
1070
    74
1070
     0
1000
MTEXTEND
  0
LINE
  5
2784
102
{ACAD_REACTORS
330
286C
102
}
330
18
100
AcDbEntity
  8
0
  6
Continuous
 62
     1
100
AcDbLine
 10
348.4655134404676
 20
155.8249843576293
 30
0.0
 11
348.4655134404676
 21
168.1729160704619
 31
0.0
1001
PHOENIX7010
1002
{
1070
    41
1040
2.0
1070
    62
1070
     1
1002
}
  0
LINE
  5
2785
102
{ACAD_REACTORS
330
286C
102
}
330
18
100
AcDbEntity
  8
0
  6
Continuous
 62
     1
100
AcDbLine
 10
336.3448919880599
 20
155.8249843576293
 30
0.0
 11
336.3448919880599
 21
168.1729160704619
 31
0.0
1001
PHOENIX7010
1002
{
1070
    41
1040
2.0
1070
    62
1070
     1
1002
}
  0
LINE
  5
2871
102
{ACAD_REACTORS
330
286C
102
}
330
18
100
AcDbEntity
  8
0
  6
Continuous
 62
     1
100
AcDbLine
 10
442.3082288516273
 20
155.8249843576293
 30
0.0
 11
442.3082288516273
 21
168.1729160704619
 31
0.0
1001
PHOENIX7010
1002
{
1070
    41
1040
2.0
1002
}
  0
LINE
  5
2872
102
{ACAD_REACTORS
330
286C
102
}
330
18
100
AcDbEntity
  8
0
  6
Continuous
 62
     1
100
AcDbLine
 10
454.4288503040351
 20
155.8249843576293
 30
0.0
 11
454.4288503040351
 21
168.1729160704619
 31
0.0
1001
PHOENIX7010
1002
{
1070
    41
1040
2.0
1002
}
  0
MTEXT
  5
2873
102
{ACAD_REACTORS
330
286C
102
}
330
18
100
AcDbEntity
  8
0
  6
Continuous
 62
     5
100
AcDbMText
 10
455.7377759130986
 20
167.6914987205023
 30
0.0
 40
2.5
 41
27.5
 71
     1
 72
     5
  1
H\P132,6\P265,9
 73
     1
 44
1.0
1001
PHOENIX7010
1002
{
1070
    41
1040
2.0
1002
}
1001
ACAD
1000
MTEXTBEGIN
1070
    73
1070
     1
1070
    44
1040
1.0
1070
    74
1070
     0
1000
MTEXTEND
  0
MTEXT
  5
2874
102
{ACAD_REACTORS
330
286C
102
}
330
18
100
AcDbEntity
  8
0
  6
Continuous
 62
     5
100
AcDbMText
 10
445.8327514502484
 20
167.6914987205023
 30
0.0
 40
2.5
 41
27.5
 71
     1
 72
     5
  1
HE\P3\P6
 73
     1
 44
1.0
1001
PHOENIX7010
1002
{
1070
    41
1040
2.0
1002
}
1001
ACAD
1000
MTEXTBEGIN
1070
    73
1070
     1
1070
    44
1040
1.0
1070
    74
1070
     0
1000
MTEXTEND
  0
MTEXT
  5
2875
102
{ACAD_REACTORS
330
286C
102
}
330
18
100
AcDbEntity
  8
0
  6
Continuous
 62
     5
100
AcDbMText
 10
411.578368498692
 20
167.6914987205023
 30
0.0
 40
2.5
 41
43.29980783089957
 71
     1
 72
     5
  1
Modell\PFLG/M 00300\PFLG/M 00600
 73
     1
 44
1.0
1001
PHOENIX7010
1002
{
1070
    41
1040
2.0
1002
}
1001
ACAD
1000
MTEXTBEGIN
1070
    73
1070
     1
1070
    44
1040
1.0
1070
    74
1070
     0
1000
MTEXTEND
  0
LINE
  5
2876
102
{ACAD_REACTORS
330
286C
102
}
330
18
100
AcDbEntity
  8
0
  6
Continuous
 62
     1
100
AcDbLine
 10
410.2694428896284
 20
164.1549843576292
 30
0.0
 11
496.3198044252431
 21
164.1549843576292
 31
0.0
1001
PHOENIX7010
1002
{
1070
    41
1040
2.0
1002
}
  0
LINE
  5
2877
102
{ACAD_REACTORS
330
286C
102
}
330
18
100
AcDbEntity
  8
0
  6
Continuous
 62
     1
100
AcDbLine
 10
410.2694428896284
 20
159.9899843576293
 30
0.0
 11
496.3198044252431
 21
159.9899843576293
 31
0.0
1001
PHOENIX7010
1002
{
1070
    41
1040
2.0
1002
}
  0
LINE
  5
2878
102
{ACAD_REACTORS
330
286C
102
}
330
18
100
AcDbEntity
  8
0
  6
Continuous
 62
     1
100
AcDbLine
 10
410.2694428896284
 20
155.8249843576293
 30
0.0
 11
496.3198044252431
 21
155.8249843576293
 31
0.0
1001
PHOENIX7010
1002
{
1070
    41
1040
2.0
1002
}
  0
LINE
  5
28B1
102
{ACAD_REACTORS
330
286C
102
}
330
18
100
AcDbEntity
  8
0
  6
Continuous
 62
     1
100
AcDbLine
 10
466.5494717564428
 20
155.8249843576293
 30
0.0
 11
466.5494717564428
 21
168.1729160704619
 31
0.0
1001
PHOENIX7010
1002
{
1070
    41
1040
2.0
1002
}
  0
MTEXT
  5
28B2
102
{ACAD_REACTORS
330
286C
102
}
330
18
100
AcDbEntity
  8
0
  6
Continuous
 62
     5
100
AcDbMText
 10
467.8583973655063
 20
167.6914987205023
 30
0.0
 40
2.5
 41
27.5
 71
     1
 72
     5
  1
C\P88,0\P235,0
 73
     1
 44
1.0
1001
PHOENIX7010
1002
{
1070
    41
1040
2.0
1002
}
1001
ACAD
1000
MTEXTBEGIN
1070
    73
1070
     1
1070
    44
1040
1.0
1070
    74
1070
     0
1000
MTEXTEND
  0
MTEXT
  5
28E9
102
{ACAD_REACTORS
330
286C
102
}
330
18
100
AcDbEntity
  8
0
  6
Continuous
 62
     5
100
AcDbMText
 10
361.8950605019388
 20
167.6914987205023
 30
0.0
 40
2.5
 41
27.5
 71
     1
 72
     5
  1
n\P2\P5
 73
     1
 44
1.0
1001
PHOENIX7010
1002
{
1070
    41
1040
2.0
1002
}
1001
ACAD
1000
MTEXTBEGIN
1070
    73
1070
     1
1070
    44
1040
1.0
1070
    74
1070
     0
1000
MTEXTEND
  0
LINE
  5
28EA
102
{ACAD_REACTORS
330
286C
102
}
330
18
100
AcDbEntity
  8
0
  6
Continuous
 62
     1
100
AcDbLine
 10
360.5861348928753
 20
155.8249843576293
 30
0.0
 11
360.5861348928753
 21
168.1729160704619
 31
0.0
1001
PHOENIX7010
1002
{
1070
    41
1040
2.0
1002
}
  0
MTEXT
  5
28EC
102
{ACAD_REACTORS
330
286C
102
}
330
18
100
AcDbEntity
  8
0
  6
Continuous
 62
     5
100
AcDbMText
 10
479.979018817914
 20
167.6914987205023
 30
0.0
 40
2.5
 41
27.5
 71
     1
 72
     5
  1
A\P14,8\P14,8
 73
     1
 44
1.0
1001
PHOENIX7010
1002
{
1070
    41
1040
2.0
1002
}
1001
ACAD
1000
MTEXTBEGIN
1070
    73
1070
     1
1070
    44
1040
1.0
1070
    74
1070
     0
1000
MTEXTEND
  0
MTEXT
  5
28ED
102
{ACAD_REACTORS
330
286C
102
}
330
18
100
AcDbEntity
  8
0
  6
Continuous
 62
     5
100
AcDbMText
 10
492.0996402703217
 20
167.6914987205023
 30
0.0
 40
2.5
 41
27.5
 71
     1
 72
     5
  1
n\P2\P5
 73
     1
 44
1.0
1001
PHOENIX7010
1002
{
1070
    41
1040
2.0
1002
}
1001
ACAD
1000
MTEXTBEGIN
1070
    73
1070
     1
1070
    44
1040
1.0
1070
    74
1070
     0
1000
MTEXTEND
  0
LINE
  5
28EE
102
{ACAD_REACTORS
330
286C
102
}
330
18
100
AcDbEntity
  8
0
  6
Continuous
 62
     1
100
AcDbLine
 10
490.7907146612582
 20
155.8249843576293
 30
0.0
 11
490.7907146612582
 21
168.1729160704619
 31
0.0
1001
PHOENIX7010
1002
{
1070
    41
1040
2.0
1002
}
  0
LINE
  5
28EF
102
{ACAD_REACTORS
330
286C
102
}
330
18
100
AcDbEntity
  8
0
  6
Continuous
 62
     1
100
AcDbLine
 10
478.6700932088505
 20
155.8249843576293
 30
0.0
 11
478.6700932088505
 21
168.1729160704619
 31
0.0
1001
PHOENIX7010
1002
{
1070
    41
1040
2.0
1002
}
  0
MTEXT
  5
2A81
330
18
100
AcDbEntity
  8
0
  6
Continuous
 62
     5
100
AcDbMText
 10
460.7577449190407
 20
232.094032316628
 30
0.0
 40
3.5
 41
43.29980783089957
 71
     1
 72
     5
  1
FLG/M
 73
     1
 44
1.0
1001
PHOENIX7010
1002
{
1070
    41
1040
2.0
1002
}
1001
ACAD
1000
MTEXTBEGIN
1070
    73
1070
     1
1070
    44
1040
1.0
1070
    74
1070
     0
1000
MTEXTEND
  0
MTEXT
  5
2A88
330
18
100
AcDbEntity
  8
0
  6
Continuous
 62
     5
100
AcDbMText
 10
460.463697786274
 20
301.7663223813209
 30
0.0
 40
3.5
 41
43.29980783089957
 71
     1
 72
     5
  1
FL/M
 73
     1
 44
1.0
1001
PHOENIX7010
1002
{
1070
    41
1040
2.0
1002
}
1001
ACAD
1000
MTEXTBEGIN
1070
    73
1070
     1
1070
    44
1040
1.0
1070
    74
1070
     0
1000
MTEXTEND
  0
PDFUNDERLAY
  5
2B6E
330
18
100
AcDbEntity
  8
0
  6
ACAD_ISO05W100
 62
     3
 92
        8
310
0800000000000000
370
    70
100
AcDbUnderlayReference
340
2B6D
 10
474.9035603538534
 20
263.003278717987
 30
0.0
 41
5.5
 42
5.5
 43
5.5
281
   100
282
     0
  0
PDFUNDERLAY
  5
2B71
330
18
100
AcDbEntity
  8
0
  6
ACAD_ISO05W100
 62
     3
 92
        8
310
0800000000000000
370
    70
100
AcDbUnderlayReference
340
2B70
 10
475.1330732096193
 20
193.0364429081228
 30
0.0
 41
5.5
 42
5.5
 43
5.5
281
   100
282
     0
  0
ENDSEC
  0
SECTION
  2
OBJECTS
  0
DICTIONARY
  5
C
330
0
100
AcDbDictionary
281
     1
  3
ACAD_COLOR
350
4D1
  3
ACAD_GROUP
350
D
  3
ACAD_LAYOUT
350
4D2
  3
ACAD_MATERIAL
350
4D0
  3
ACAD_MLEADERSTYLE
350
523
  3
ACAD_MLINESTYLE
350
1B
  3
ACAD_PDFDEFINITIONS
350
258F
  3
ACAD_PLOTSETTINGS
350
4D3
  3
ACAD_PLOTSTYLENAME
350
4CE
  3
ACAD_SCALELIST
350
511
  3
ACAD_TABLESTYLE
350
50F
  3
ACAD_VISUALSTYLE
350
4FB
  3
ACDB_RECOMPOSE_DATA
350
2C45
  3
AcDbVariableDictionary
350
4DF
  3
AEC_PROPERTY_SET_DEFS
350
57B
  3
ASE_INDEX_DICTIONARY
350
2A42
  3
DWGPROPS
350
2C46
  3
PH_OBJREACTOR_DICT
350
1DB
  3
PH_ROOTGROUP_DICT
350
1D1
  3
PH_VARS
350
1D0
  0
DICTIONARY
  5
265C
330
8
100
AcDbDictionary
280
     1
281
     1
  0
DICTIONARY
  5
24C6
330
2
100
AcDbDictionary
280
     1
281
     1
  3
ACAD_LAYERSTATES
360
24C7
  0
DICTIONARY
  5
527
330
E
100
AcDbDictionary
280
     1
281
     1
  3
ADSK_XREC_LAYER_RECONCILED
360
528
  0
DICTIONARY
  5
529
330
21
100
AcDbDictionary
280
     1
281
     1
  3
ADSK_XREC_LAYER_RECONCILED
360
52A
  0
DICTIONARY
  5
52B
330
38
100
AcDbDictionary
280
     1
281
     1
  3
ADSK_XREC_LAYER_RECONCILED
360
52C
  0
DICTIONARY
  5
52D
330
1F0
100
AcDbDictionary
280
     1
281
     1
  3
ADSK_XREC_LAYER_RECONCILED
360
52E
  0
DICTIONARY
  5
2C43
330
24D1
100
AcDbDictionary
280
     1
281
     1
  3
ACAD_MTEXT_2008_RT
360
2C44
  0
DICTIONARY
  5
4D1
102
{ACAD_REACTORS
330
C
102
}
330
C
100
AcDbDictionary
281
     1
  0
DICTIONARY
  5
D
102
{ACAD_REACTORS
330
C
102
}
330
C
100
AcDbDictionary
281
     1
  3
$$$$$$$$_BZA45776
350
116
  3
$$$$$$$$_RAHMEN
350
12F
  3
*A1
350
32C
  3
*A10
350
32F
  3
*A2
350
330
  3
*A3
350
331
  3
*A4
350
332
  3
*A5
350
333
  3
*A6
350
334
  3
*A7
350
335
  3
*A8
350
32D
  3
*A9
350
32E
  3
_GF_XXXX_2KOPF
350
1C8
  3
_GF_XXXX_BZA45776
350
CD
  3
_GF_XXXX_RAHMEN
350
170
  3
_MD_XXXX_BZA45776
350
11F
  3
_VV_XXXX_RAHMEN
350
12B
  3
_ZU_XXXX_RAHMEN
350
19C
  3
DINA4H_BZA45776
350
20
  0
DICTIONARY
  5
4D2
102
{ACAD_REACTORS
330
C
102
}
330
C
100
AcDbDictionary
281
     1
  3
Layout1
350
4D5
  3
Model
350
4D4
  0
DICTIONARY
  5
4D0
102
{ACAD_REACTORS
330
C
102
}
330
C
100
AcDbDictionary
281
     1
  3
ByBlock
350
4EB
  3
ByLayer
350
4E3
  3
Global
350
4F3
  0
DICTIONARY
  5
523
102
{ACAD_REACTORS
330
C
102
}
330
C
100
AcDbDictionary
281
     1
  3
Standard
350
524
  0
DICTIONARY
  5
1B
102
{ACAD_REACTORS
330
C
102
}
330
C
100
AcDbDictionary
281
     1
  3
STANDARD
350
1C
  0
DICTIONARY
  5
258F
102
{ACAD_REACTORS
330
C
102
}
330
C
100
AcDbDictionary
281
     1
  3
2901858-1 - 1
350
2B6D
  3
2901858-2 - 1
350
2B70
  3
86700031_FL_M_00300 - 1
350
2591
  3
86700032_FLG_M_00300 - 1
350
26D7
  0
DICTIONARY
  5
4D3
102
{ACAD_REACTORS
330
C
102
}
330
C
100
AcDbDictionary
281
     1
  0
ACDBDICTIONARYWDFLT
  5
4CE
102
{ACAD_REACTORS
330
C
102
}
330
C
100
AcDbDictionary
281
     1
  3
Normal
350
4CF
100
AcDbDictionaryWithDefault
340
4CF
  0
DICTIONARY
  5
511
102
{ACAD_REACTORS
330
C
102
}
330
C
100
AcDbDictionary
281
     1
  3
A0
350
512
  3
A1
350
513
  3
A2
350
514
  3
A3
350
515
  3
A4
350
516
  3
A5
350
517
  3
A6
350
518
  3
A7
350
519
  3
A8
350
51A
  3
A9
350
51B
  3
B0
350
51C
  3
B1
350
51D
  3
B2
350
51E
  3
B3
350
51F
  3
B4
350
520
  3
B5
350
521
  3
B6
350
522
  0
DICTIONARY
  5
50F
102
{ACAD_REACTORS
330
C
102
}
330
C
100
AcDbDictionary
281
     1
  3
Standard
350
510
  0
DICTIONARY
  5
4FB
102
{ACAD_REACTORS
330
C
102
}
330
C
100
AcDbDictionary
281
     1
  3
2dWireframe
350
501
  3
3D Hidden
350
503
  3
3dWireframe
350
502
  3
Basic
350
500
  3
Brighten
350
507
  3
ColorChange
350
50B
  3
Conceptual
350
504
  3
Dim
350
506
  3
EdgeColorOff
350
50E
  3
Facepattern
350
50A
  3
Flat
350
4FC
  3
FlatWithEdges
350
4FD
  3
Gouraud
350
4FE
  3
GouraudWithEdges
350
4FF
  3
JitterOff
350
50C
  3
Linepattern
350
509
  3
OverhangOff
350
50D
  3
Realistic
350
505
  3
Thicken
350
508
  0
XRECORD
  5
2C45
102
{ACAD_REACTORS
330
C
102
}
330
C
100
AcDbXrecord
280
     1
 90
        1
330
510
330
24D1
  0
DICTIONARY
  5
4DF
102
{ACAD_REACTORS
330
C
102
}
330
C
100
AcDbDictionary
281
     1
  3
CANNOSCALE
350
268F
  3
CMLEADERSTYLE
350
268E
  3
CTABLESTYLE
350
268D
  3
DIMASSOC
350
4E0
  3
INDEXCTL
350
2691
  3
PROJECTNAME
350
4E1
  3
SORTENTS
350
2690
  3
XCLIPFRAME
350
2BA7
  0
DICTIONARY
  5
57B
102
{ACAD_REACTORS
330
C
102
}
330
C
100
AcDbDictionary
281
     1
  0
DICTIONARY
  5
2A42
102
{ACAD_REACTORS
330
C
102
}
330
C
100
AcDbDictionary
281
     1
  3
ASEBlockHierarchyIndexRecord
350
2A44
1001
DCO15
1040
1810976126.627
  0
XRECORD
  5
2C46
102
{ACAD_REACTORS
330
C
102
}
330
C
100
AcDbXrecord
280
     1
  1
DWGPROPS COOKIE
  2

  3

  4

  6

  7

  8
nowak
  9

300
=
301
=
302
=
303
=
304
=
305
=
306
=
307
=
308
=
309
=
 40
0.0862034259259259
 41
2451306.623786458
 42
2456784.389408657
  1

 90
        0
  0
DICTIONARY
  5
1DB
102
{ACAD_REACTORS
330
C
102
}
330
C
100
AcDbDictionary
281
     1
  0
DICTIONARY
  5
1D1
102
{ACAD_REACTORS
330
C
102
}
330
C
100
AcDbDictionary
281
     1
  3
$PH$AAAF3H
350
5AD
  3
$PH$AAAGCandP
350
250D
  3
PH_GRPMEMBERS
350
286C
  0
PH_VARS
  5
1D0
102
{ACAD_REACTORS
330
C
102
}
330
C
  0
DICTIONARY
  5
24C7
102
{ACAD_REACTORS
330
24C6
102
}
330
24C6
100
AcDbDictionary
281
     1
  0
XRECORD
  5
528
102
{ACAD_REACTORS
330
527
102
}
330
527
100
AcDbXrecord
280
     1
290
     1
  0
XRECORD
  5
52A
102
{ACAD_REACTORS
330
529
102
}
330
529
100
AcDbXrecord
280
     1
290
     1
  0
XRECORD
  5
52C
102
{ACAD_REACTORS
330
52B
102
}
330
52B
100
AcDbXrecord
280
     1
290
     1
  0
XRECORD
  5
52E
102
{ACAD_REACTORS
330
52D
102
}
330
52D
100
AcDbXrecord
280
     1
290
     1
  0
XRECORD
  5
2C44
102
{ACAD_REACTORS
330
2C43
102
}
330
2C43
100
AcDbXrecord
280
     1
 40
46997.0
  1
\pxql;{\fArial|b1|i0|c0|p34;\W1.1;BOPLA}
  0
GROUP
  5
116
102
{ACAD_REACTORS
330
D
102
}
330
D
100
AcDbGroup
300
V11:16928:********
 70
     0
 71
     1
  0
GROUP
  5
12F
102
{ACAD_REACTORS
330
D
102
}
330
D
100
AcDbGroup
300
V11:16941:********
 70
     0
 71
     1
  0
GROUP
  5
32C
102
{ACAD_REACTORS
330
D
102
}
330
D
100
AcDbGroup
300
V11:8654:********
 70
     3
 71
     1
340
3C8
340
3C9
340
3CA
340
3CB
340
3CE
340
3D1
340
3EB
340
3EC
340
3ED
340
3EE
340
3EF
  0
GROUP
  5
32F
102
{ACAD_REACTORS
330
D
102
}
330
D
100
AcDbGroup
300
V11:8648:_GF_XXXX
 70
     3
 71
     1
340
3C8
340
3C9
340
3CA
340
3CB
340
3CE
340
3D1
340
3EB
340
3EC
340
3ED
340
3EE
340
3EF
  0
GROUP
  5
330
102
{ACAD_REACTORS
330
D
102
}
330
D
100
AcDbGroup
300
V11:8679:_GF_XXXX
 70
     3
 71
     1
  0
GROUP
  5
331
102
{ACAD_REACTORS
330
D
102
}
330
D
100
AcDbGroup
300
V11:8661:_MD_XXXX
 70
     3
 71
     1
  0
GROUP
  5
332
102
{ACAD_REACTORS
330
D
102
}
330
D
100
AcDbGroup
300
V11:8667:_VV_XXXX
 70
     3
 71
     1
  0
GROUP
  5
333
102
{ACAD_REACTORS
330
D
102
}
330
D
100
AcDbGroup
300
V11:8656:_ZU_XXXX
 70
     3
 71
     1
340
3EB
340
3EC
340
3ED
340
3EE
340
3EF
  0
GROUP
  5
334
102
{ACAD_REACTORS
330
D
102
}
330
D
100
AcDbGroup
300
V11:8683:_ZU_XXXX
 70
     3
 71
     1
  0
GROUP
  5
335
102
{ACAD_REACTORS
330
D
102
}
330
D
100
AcDbGroup
300
V11:8588:DINA4H
 70
     3
 71
     1
  0
GROUP
  5
32D
102
{ACAD_REACTORS
330
D
102
}
330
D
100
AcDbGroup
300
V11:8673:********
 70
     3
 71
     1
  0
GROUP
  5
32E
102
{ACAD_REACTORS
330
D
102
}
330
D
100
AcDbGroup
300
V11:8686:_GF_XXXX
 70
     3
 71
     1
  0
GROUP
  5
1C8
102
{ACAD_REACTORS
330
D
102
}
330
D
100
AcDbGroup
300
V11:16954:_GF_XXXX
 70
     0
 71
     1
  0
GROUP
  5
CD
102
{ACAD_REACTORS
330
D
102
}
330
D
100
AcDbGroup
300
V11:16916:_GF_XXXX
 70
     0
 71
     1
  0
GROUP
  5
170
102
{ACAD_REACTORS
330
D
102
}
330
D
100
AcDbGroup
300
V11:16947:_GF_XXXX
 70
     0
 71
     1
  0
GROUP
  5
11F
102
{ACAD_REACTORS
330
D
102
}
330
D
100
AcDbGroup
300
V11:16929:_MD_XXXX
 70
     0
 71
     1
  0
GROUP
  5
12B
102
{ACAD_REACTORS
330
D
102
}
330
D
100
AcDbGroup
300
V11:16935:_VV_XXXX
 70
     0
 71
     1
  0
GROUP
  5
19C
102
{ACAD_REACTORS
330
D
102
}
330
D
100
AcDbGroup
300
V11:16951:_ZU_XXXX
 70
     0
 71
     1
  0
GROUP
  5
20
102
{ACAD_REACTORS
330
D
102
}
330
D
100
AcDbGroup
300
V11:16896:DINA4H
 70
     0
 71
     1
  0
LAYOUT
  5
4D5
102
{ACAD_XDICTIONARY
360
2C49
102
}
102
{ACAD_REACTORS
330
4D2
102
}
330
4D2
100
AcDbPlotSettings
  1

  2
HP DeskJet 850C
  4

  6

 40
0.0
 41
0.0
 42
0.0
 43
0.0
 44
0.0
 45
0.0
 46
0.0
 47
0.0
 48
0.0
 49
0.0
140
0.0
141
0.0
142
1.0
143
1.0
 70
   688
 72
     0
 73
     0
 74
     5
  7
HP_Farbe_Dünn.ctb
 75
    16
147
1.0
148
0.0
149
0.0
100
AcDbLayout
  1
Layout1
 70
     1
 71
     1
 10
0.0
 20
0.0
 11
420.0
 21
297.0
 12
0.0
 22
0.0
 32
0.0
 14
1.000000000000000E+20
 24
1.000000000000000E+20
 34
1.000000000000000E+20
 15
-1.000000000000000E+20
 25
-1.000000000000000E+20
 35
-1.000000000000000E+20
146
0.0
 13
0.0
 23
0.0
 33
0.0
 16
1.0
 26
0.0
 36
0.0
 17
0.0
 27
1.0
 37
0.0
 76
     0
330
15
  0
LAYOUT
  5
4D4
102
{ACAD_XDICTIONARY
360
2C47
102
}
102
{ACAD_REACTORS
330
4D2
102
}
330
4D2
100
AcDbPlotSettings
  1

  2
none_device
  4
ISO_A4_(210.00_x_297.00_MM)
  6

 40
7.5
 41
20.0
 42
7.5
 43
20.0
 44
210.0
 45
297.0
 46
0.0
 47
0.0
 48
0.0
 49
0.0
140
0.0
141
0.0
142
1.0
143
1.627300041659147
 70
 11952
 72
     1
 73
     1
 74
     0
  7
HP_Farbe_Dünn.ctb
 75
     0
147
0.6145148248017183
148
-210.638114378217
149
-138.2876315178585
100
AcDbLayout
  1
Model
 70
     1
 71
     0
 10
0.0
 20
0.0
 11
12.0
 21
9.0
 12
0.0
 22
0.0
 32
0.0
 14
0.0
 24
0.0
 34
0.0
 15
0.0
 25
0.0
 35
0.0
146
0.0
 13
0.0
 23
0.0
 33
0.0
 16
1.0
 26
0.0
 36
0.0
 17
0.0
 27
1.0
 37
0.0
 76
     0
330
18
331
4D7
1001
ACAD_PSEXT
1000
Kein
1000
Kein
1000
Nicht anwendbar
1000
Das Layout wird erst geplottet, wenn ein neuer Plotter-Konfigurationsname ausgewählt wird.
1070
     0
  0
MATERIAL
  5
4EB
102
{ACAD_XDICTIONARY
360
4EC
102
}
102
{ACAD_REACTORS
330
4D0
102
}
330
4D0
100
AcDbMaterial
  1
ByBlock
 72
     0
 43
0.0208333333333333
 43
0.0
 43
0.0
 43
0.0
 43
0.0
 43
0.0208333333333333
 43
0.0
 43
0.0
 43
0.0
 43
0.0
 43
1.0
 43
0.0
 43
0.0
 43
0.0
 43
0.0
 43
1.0
 77
     0
 47
0.0208333333333333
 47
0.0
 47
0.0
 47
0.0
 47
0.0
 47
0.0208333333333333
 47
0.0
 47
0.0
 47
0.0
 47
0.0
 47
1.0
 47
0.0
 47
0.0
 47
0.0
 47
0.0
 47
1.0
171
     0
 49
0.0208333333333333
 49
0.0
 49
0.0
 49
0.0
 49
0.0
 49
0.0208333333333333
 49
0.0
 49
0.0
 49
0.0
 49
0.0
 49
1.0
 49
0.0
 49
0.0
 49
0.0
 49
0.0
 49
1.0
175
     0
142
0.0208333333333333
142
0.0
142
0.0
142
0.0
142
0.0
142
0.0208333333333333
142
0.0
142
0.0
142
0.0
142
0.0
142
1.0
142
0.0
142
0.0
142
0.0
142
0.0
142
1.0
179
     0
144
0.0208333333333333
144
0.0
144
0.0
144
0.0
144
0.0
144
0.0208333333333333
144
0.0
144
0.0
144
0.0
144
0.0
144
1.0
144
0.0
144
0.0
144
0.0
144
0.0
144
1.0
147
0.0208333333333333
147
0.0
147
0.0
147
0.0
147
0.0
147
0.0208333333333333
147
0.0
147
0.0
147
0.0
147
0.0
147
1.0
147
0.0
147
0.0
147
0.0
147
0.0
147
1.0
  0
MATERIAL
  5
4E3
102
{ACAD_XDICTIONARY
360
4E4
102
}
102
{ACAD_REACTORS
330
4D0
102
}
330
4D0
100
AcDbMaterial
  1
ByLayer
 72
     0
 43
0.0208333333333333
 43
0.0
 43
0.0
 43
0.0
 43
0.0
 43
0.0208333333333333
 43
0.0
 43
0.0
 43
0.0
 43
0.0
 43
1.0
 43
0.0
 43
0.0
 43
0.0
 43
0.0
 43
1.0
 77
     0
 47
0.0208333333333333
 47
0.0
 47
0.0
 47
0.0
 47
0.0
 47
0.0208333333333333
 47
0.0
 47
0.0
 47
0.0
 47
0.0
 47
1.0
 47
0.0
 47
0.0
 47
0.0
 47
0.0
 47
1.0
171
     0
 49
0.0208333333333333
 49
0.0
 49
0.0
 49
0.0
 49
0.0
 49
0.0208333333333333
 49
0.0
 49
0.0
 49
0.0
 49
0.0
 49
1.0
 49
0.0
 49
0.0
 49
0.0
 49
0.0
 49
1.0
175
     0
142
0.0208333333333333
142
0.0
142
0.0
142
0.0
142
0.0
142
0.0208333333333333
142
0.0
142
0.0
142
0.0
142
0.0
142
1.0
142
0.0
142
0.0
142
0.0
142
0.0
142
1.0
179
     0
144
0.0208333333333333
144
0.0
144
0.0
144
0.0
144
0.0
144
0.0208333333333333
144
0.0
144
0.0
144
0.0
144
0.0
144
1.0
144
0.0
144
0.0
144
0.0
144
0.0
144
1.0
147
0.0208333333333333
147
0.0
147
0.0
147
0.0
147
0.0
147
0.0208333333333333
147
0.0
147
0.0
147
0.0
147
0.0
147
1.0
147
0.0
147
0.0
147
0.0
147
0.0
147
1.0
  0
MATERIAL
  5
4F3
102
{ACAD_XDICTIONARY
360
4F4
102
}
102
{ACAD_REACTORS
330
4D0
102
}
330
4D0
100
AcDbMaterial
  1
Global
 72
     0
 43
0.0208333333333333
 43
0.0
 43
0.0
 43
0.0
 43
0.0
 43
0.0208333333333333
 43
0.0
 43
0.0
 43
0.0
 43
0.0
 43
1.0
 43
0.0
 43
0.0
 43
0.0
 43
0.0
 43
1.0
 77
     0
 47
0.0208333333333333
 47
0.0
 47
0.0
 47
0.0
 47
0.0
 47
0.0208333333333333
 47
0.0
 47
0.0
 47
0.0
 47
0.0
 47
1.0
 47
0.0
 47
0.0
 47
0.0
 47
0.0
 47
1.0
171
     0
 49
0.0208333333333333
 49
0.0
 49
0.0
 49
0.0
 49
0.0
 49
0.0208333333333333
 49
0.0
 49
0.0
 49
0.0
 49
0.0
 49
1.0
 49
0.0
 49
0.0
 49
0.0
 49
0.0
 49
1.0
175
     0
142
0.0208333333333333
142
0.0
142
0.0
142
0.0
142
0.0
142
0.0208333333333333
142
0.0
142
0.0
142
0.0
142
0.0
142
1.0
142
0.0
142
0.0
142
0.0
142
0.0
142
1.0
179
     0
144
0.0208333333333333
144
0.0
144
0.0
144
0.0
144
0.0
144
0.0208333333333333
144
0.0
144
0.0
144
0.0
144
0.0
144
1.0
144
0.0
144
0.0
144
0.0
144
0.0
144
1.0
147
0.0208333333333333
147
0.0
147
0.0
147
0.0
147
0.0
147
0.0208333333333333
147
0.0
147
0.0
147
0.0
147
0.0
147
1.0
147
0.0
147
0.0
147
0.0
147
0.0
147
1.0
  0
MLEADERSTYLE
  5
524
102
{ACAD_REACTORS
330
523
102
}
330
523
100
AcDbMLeaderStyle
170
     2
171
     1
172
     0
 90
        2
 40
0.0
 41
0.0
173
     1
 91
-1056964608
340
12
 92
       -2
290
     1
 42
2.0
291
     1
 43
0.36
  3
Standard
 44
4.0
300

342
F
174
     1
178
     6
175
     1
176
     0
 93
-1056964608
 45
4.0
292
     0
297
     0
 46
4.0
 94
-1056964608
 47
1.0
 49
1.0
140
1.0
293
     1
141
0.0
294
     1
177
     0
142
1.0
295
     0
296
     0
143
0.125
1001
ACAD_MLEADERVER
1070
     2
  0
MLINESTYLE
  5
1C
102
{ACAD_REACTORS
330
1B
102
}
330
1B
100
AcDbMlineStyle
  2
STANDARD
 70
     0
  3

 62
   256
 51
90.0
 52
90.0
 71
     2
 49
0.5
 62
   256
  6
BYLAYER
 49
-0.5
 62
   256
  6
BYLAYER
  0
PDFDEFINITION
  5
2B6D
102
{ACAD_REACTORS
330
258F
330
2B6E
102
}
330
258F
100
AcDbUnderlayDefinition
  1
F:\User\Daten\DWG\nc2\nc29\2901858-1.pdf
  2
1
  0
PDFDEFINITION
  5
2B70
102
{ACAD_REACTORS
330
258F
330
2B71
102
}
330
258F
100
AcDbUnderlayDefinition
  1
F:\User\Daten\DWG\nc2\nc29\2901858-2.pdf
  2
1
  0
PDFDEFINITION
  5
2591
102
{ACAD_REACTORS
330
258F
330
26A0
102
}
330
258F
100
AcDbUnderlayDefinition
  1
F:\User\Daten\DWG\Anw\RN\NEUE KATALOGZG\Interzoll Modul\NEUE NC2-KatalogZG\86700031_FL_M_00300.pdf
  2
1
  0
PDFDEFINITION
  5
26D7
102
{ACAD_REACTORS
330
258F
330
26D8
102
}
330
258F
100
AcDbUnderlayDefinition
  1
F:\User\Daten\DWG\Anw\RN\NEUE KATALOGZG\Interzoll Modul\PDFs-Marketing\86700032_FLG_M_00300.pdf
  2
1
  0
ACDBPLACEHOLDER
  5
4CF
102
{ACAD_REACTORS
330
4CE
102
}
330
4CE
  0
SCALE
  5
512
102
{ACAD_REACTORS
330
511
102
}
330
511
100
AcDbScale
 70
     0
300
1:1
140
1.0
141
1.0
290
     1
  0
SCALE
  5
513
102
{ACAD_REACTORS
330
511
102
}
330
511
100
AcDbScale
 70
     0
300
1:2
140
1.0
141
2.0
290
     0
  0
SCALE
  5
514
102
{ACAD_REACTORS
330
511
102
}
330
511
100
AcDbScale
 70
     0
300
1:4
140
1.0
141
4.0
290
     0
  0
SCALE
  5
515
102
{ACAD_REACTORS
330
511
102
}
330
511
100
AcDbScale
 70
     0
300
1:5
140
1.0
141
5.0
290
     0
  0
SCALE
  5
516
102
{ACAD_REACTORS
330
511
102
}
330
511
100
AcDbScale
 70
     0
300
1:8
140
1.0
141
8.0
290
     0
  0
SCALE
  5
517
102
{ACAD_REACTORS
330
511
102
}
330
511
100
AcDbScale
 70
     0
300
1:10
140
1.0
141
10.0
290
     0
  0
SCALE
  5
518
102
{ACAD_REACTORS
330
511
102
}
330
511
100
AcDbScale
 70
     0
300
1:16
140
1.0
141
16.0
290
     0
  0
SCALE
  5
519
102
{ACAD_REACTORS
330
511
102
}
330
511
100
AcDbScale
 70
     0
300
1:20
140
1.0
141
20.0
290
     0
  0
SCALE
  5
51A
102
{ACAD_REACTORS
330
511
102
}
330
511
100
AcDbScale
 70
     0
300
1:30
140
1.0
141
30.0
290
     0
  0
SCALE
  5
51B
102
{ACAD_REACTORS
330
511
102
}
330
511
100
AcDbScale
 70
     0
300
1:40
140
1.0
141
40.0
290
     0
  0
SCALE
  5
51C
102
{ACAD_REACTORS
330
511
102
}
330
511
100
AcDbScale
 70
     0
300
1:50
140
1.0
141
50.0
290
     0
  0
SCALE
  5
51D
102
{ACAD_REACTORS
330
511
102
}
330
511
100
AcDbScale
 70
     0
300
1:100
140
1.0
141
100.0
290
     0
  0
SCALE
  5
51E
102
{ACAD_REACTORS
330
511
102
}
330
511
100
AcDbScale
 70
     0
300
2:1
140
2.0
141
1.0
290
     0
  0
SCALE
  5
51F
102
{ACAD_REACTORS
330
511
102
}
330
511
100
AcDbScale
 70
     0
300
4:1
140
4.0
141
1.0
290
     0
  0
SCALE
  5
520
102
{ACAD_REACTORS
330
511
102
}
330
511
100
AcDbScale
 70
     0
300
8:1
140
8.0
141
1.0
290
     0
  0
SCALE
  5
521
102
{ACAD_REACTORS
330
511
102
}
330
511
100
AcDbScale
 70
     0
300
10:1
140
10.0
141
1.0
290
     0
  0
SCALE
  5
522
102
{ACAD_REACTORS
330
511
102
}
330
511
100
AcDbScale
 70
     0
300
100:1
140
100.0
141
1.0
290
     0
  0
TABLESTYLE
  5
510
102
{ACAD_XDICTIONARY
360
2656
102
}
102
{ACAD_REACTORS
330
50F
102
}
330
50F
100
AcDbTableStyle
  3
Standard
 70
     0
 71
     0
 40
1.5
 41
1.5
280
     0
281
     0
  7
STANDARD
140
4.5
170
     2
 62
     0
 63
     7
283
     0
274
    -2
284
     1
 64
     0
275
    -2
285
     1
 65
     0
276
    -2
286
     1
 66
     0
277
    -2
287
     1
 67
     0
278
    -2
288
     1
 68
     0
279
    -2
289
     1
 69
     0
  7
STANDARD
140
6.0
170
     5
 62
     0
 63
     7
283
     0
274
    -2
284
     1
 64
     0
275
    -2
285
     1
 65
     0
276
    -2
286
     1
 66
     0
277
    -2
287
     1
 67
     0
278
    -2
288
     1
 68
     0
279
    -2
289
     1
 69
     0
  7
STANDARD
140
4.5
170
     5
 62
     0
 63
     7
283
     0
274
    -2
284
     1
 64
     0
275
    -2
285
     1
 65
     0
276
    -2
286
     1
 66
     0
277
    -2
287
     1
 67
     0
278
    -2
288
     1
 68
     0
279
    -2
289
     1
 69
     0
  0
VISUALSTYLE
  5
501
102
{ACAD_XDICTIONARY
360
2C58
102
}
102
{ACAD_REACTORS
330
4FB
102
}
330
4FB
100
AcDbVisualStyle
  2
2dWireframe
 70
     4
 71
     0
 72
     2
 73
     0
 90
        0
 40
-0.6
 41
-30.0
 62
     5
 63
     7
 74
     1
 91
        4
 64
     7
 65
   257
 75
     1
175
     1
 42
1.0
 92
        0
 66
   257
 43
1.0
 76
     1
 77
     6
 78
     2
 67
     7
 79
     5
170
     0
171
     0
290
     0
174
     0
 93
        1
 44
0.0
173
     0
291
     0
 45
0.0
1001
ACAD
1000
AcDbSavedByObjectVersion
1070
     0
  0
VISUALSTYLE
  5
503
102
{ACAD_XDICTIONARY
360
2C5C
102
}
102
{ACAD_REACTORS
330
4FB
102
}
330
4FB
100
AcDbVisualStyle
  2
3D Hidden
 70
     6
 71
     1
 72
     2
 73
     2
 90
        0
 40
-0.6
 41
-30.0
 62
     5
 63
     7
 74
     2
 91
        2
 64
     7
 65
   257
 75
     2
175
     1
 42
179.0
 92
        0
 66
   257
 43
1.0
 76
     1
 77
     6
 78
     2
 67
     7
 79
     3
170
     0
171
     0
290
     0
174
     0
 93
        1
 44
0.0
173
     0
291
     0
 45
0.0
1001
ACAD
1000
AcDbSavedByObjectVersion
1070
     0
  0
VISUALSTYLE
  5
502
102
{ACAD_XDICTIONARY
360
2C5A
102
}
102
{ACAD_REACTORS
330
4FB
102
}
330
4FB
100
AcDbVisualStyle
  2
3dWireframe
 70
     5
 71
     0
 72
     2
 73
     0
 90
        0
 40
-0.6
 41
-30.0
 62
     5
 63
     7
 74
     1
 91
        4
 64
     7
 65
   257
 75
     1
175
     1
 42
1.0
 92
        0
 66
   257
 43
1.0
 76
     1
 77
     6
 78
     2
 67
     7
 79
     5
170
     0
171
     0
290
     0
174
     0
 93
        1
 44
0.0
173
     0
291
     0
 45
0.0
1001
ACAD
1000
AcDbSavedByObjectVersion
1070
     0
  0
VISUALSTYLE
  5
500
102
{ACAD_XDICTIONARY
360
2C56
102
}
102
{ACAD_REACTORS
330
4FB
102
}
330
4FB
100
AcDbVisualStyle
  2
Basic
 70
     7
 71
     1
 72
     0
 73
     1
 90
        0
 40
-0.6
 41
-30.0
 62
     5
 63
     7
 74
     0
 91
        4
 64
     7
 65
   257
 75
     1
175
     1
 42
1.0
 92
        8
 66
     7
 43
1.0
 76
     1
 77
     6
 78
     2
 67
     7
 79
     5
170
     0
171
     0
290
     0
174
     0
 93
        1
 44
0.0
173
     0
291
     1
 45
0.0
1001
ACAD
1000
AcDbSavedByObjectVersion
1070
     0
  0
VISUALSTYLE
  5
507
102
{ACAD_XDICTIONARY
360
2C64
102
}
102
{ACAD_REACTORS
330
4FB
102
}
330
4FB
100
AcDbVisualStyle
  2
Brighten
 70
    12
 71
     2
 72
     2
 73
     0
 90
        0
 40
-0.6
 41
-30.0
 62
     5
 63
     7
 74
     1
 91
        4
 64
     7
 65
   257
 75
     1
175
     1
 42
1.0
 92
        8
 66
     7
 43
1.0
 76
     1
 77
     6
 78
     2
 67
     7
 79
     5
170
     0
171
     0
290
     0
174
     0
 93
        1
 44
50.0
173
     0
291
     1
 45
0.0
1001
ACAD
1000
AcDbSavedByObjectVersion
1070
     0
  0
VISUALSTYLE
  5
50B
102
{ACAD_XDICTIONARY
360
2C6C
102
}
102
{ACAD_REACTORS
330
4FB
102
}
330
4FB
100
AcDbVisualStyle
  2
ColorChange
 70
    16
 71
     2
 72
     2
 73
     3
 90
        0
 40
-0.6
 41
-30.0
 62
     5
 63
     8
 74
     1
 91
        4
 64
     7
 65
   257
 75
     1
175
     1
 42
1.0
 92
        8
 66
     8
 43
1.0
 76
     1
 77
     6
 78
     2
 67
     7
 79
     5
170
     0
171
     0
290
     0
174
     0
 93
        1
 44
0.0
173
     0
291
     1
 45
0.0
1001
ACAD
1000
AcDbSavedByObjectVersion
1070
     0
  0
VISUALSTYLE
  5
504
102
{ACAD_XDICTIONARY
360
2C5E
102
}
102
{ACAD_REACTORS
330
4FB
102
}
330
4FB
100
AcDbVisualStyle
  2
Conceptual
 70
     9
 71
     3
 72
     2
 73
     0
 90
        0
 40
-0.6
 41
-30.0
 62
     5
 63
     7
 74
     2
 91
        2
 64
     7
 65
   257
 75
     1
175
     1
 42
179.0
 92
        8
 66
     7
 43
1.0
 76
     1
 77
     6
 78
     2
 67
     7
 79
     3
170
     0
171
     0
290
     0
174
     0
 93
        1
 44
0.0
173
     0
291
     0
 45
0.0
1001
ACAD
1000
AcDbSavedByObjectVersion
1070
     0
  0
VISUALSTYLE
  5
506
102
{ACAD_XDICTIONARY
360
2C62
102
}
102
{ACAD_REACTORS
330
4FB
102
}
330
4FB
100
AcDbVisualStyle
  2
Dim
 70
    11
 71
     2
 72
     2
 73
     0
 90
        0
 40
-0.6
 41
-30.0
 62
     5
 63
     7
 74
     1
 91
        4
 64
     7
 65
   257
 75
     1
175
     1
 42
1.0
 92
        8
 66
     7
 43
1.0
 76
     1
 77
     6
 78
     2
 67
     7
 79
     5
170
     0
171
     0
290
     0
174
     0
 93
        1
 44
-50.0
173
     0
291
     1
 45
0.0
1001
ACAD
1000
AcDbSavedByObjectVersion
1070
     0
  0
VISUALSTYLE
  5
50E
102
{ACAD_XDICTIONARY
360
2C72
102
}
102
{ACAD_REACTORS
330
4FB
102
}
330
4FB
100
AcDbVisualStyle
  2
EdgeColorOff
 70
    22
 71
     2
 72
     2
 73
     0
 90
        0
 40
-0.6
 41
-30.0
 62
     5
 63
     7
 74
     1
 91
        4
 64
     7
 65
   257
 75
     1
175
     1
 42
1.0
 92
        8
 66
     7
 43
1.0
 76
     1
 77
     6
 78
     2
 67
     7
 79
     5
170
     0
171
     0
290
     0
174
     0
 93
        1
 44
0.0
173
     0
291
     1
 45
0.0
1001
ACAD
1000
AcDbSavedByObjectVersion
1070
     0
  0
VISUALSTYLE
  5
50A
102
{ACAD_XDICTIONARY
360
2C6A
102
}
102
{ACAD_REACTORS
330
4FB
102
}
330
4FB
100
AcDbVisualStyle
  2
Facepattern
 70
    15
 71
     2
 72
     2
 73
     0
 90
        0
 40
-0.6
 41
-30.0
 62
     5
 63
     7
 74
     1
 91
        4
 64
     7
 65
   257
 75
     1
175
     1
 42
1.0
 92
        8
 66
     7
 43
1.0
 76
     1
 77
     6
 78
     2
 67
     7
 79
     5
170
     0
171
     0
290
     0
174
     0
 93
        1
 44
0.0
173
     0
291
     1
 45
0.0
1001
ACAD
1000
AcDbSavedByObjectVersion
1070
     0
  0
VISUALSTYLE
  5
4FC
102
{ACAD_XDICTIONARY
360
2C4E
102
}
102
{ACAD_REACTORS
330
4FB
102
}
330
4FB
100
AcDbVisualStyle
  2
Flat
 70
     0
 71
     2
 72
     1
 73
     1
 90
        2
 40
-0.6
 41
30.0
 62
     5
 63
     7
 74
     0
 91
        4
 64
     7
 65
   257
 75
     1
175
     1
 42
1.0
 92
        8
 66
     7
 43
1.0
 76
     1
 77
     6
 78
     2
 67
     7
 79
     5
170
     0
171
     0
290
     0
174
     0
 93
       13
 44
0.0
173
     0
291
     1
 45
0.0
1001
ACAD
1000
AcDbSavedByObjectVersion
1070
     0
  0
VISUALSTYLE
  5
4FD
102
{ACAD_XDICTIONARY
360
2C50
102
}
102
{ACAD_REACTORS
330
4FB
102
}
330
4FB
100
AcDbVisualStyle
  2
FlatWithEdges
 70
     1
 71
     2
 72
     1
 73
     1
 90
        2
 40
-0.6
 41
30.0
 62
     5
 63
     7
 74
     1
 91
        4
 64
     7
 65
   257
 75
     1
175
     1
 42
1.0
 92
        0
 66
   257
 43
1.0
 76
     1
 77
     6
 78
     2
 67
     7
 79
     5
170
     0
171
     0
290
     0
174
     0
 93
       13
 44
0.0
173
     0
291
     1
 45
0.0
1001
ACAD
1000
AcDbSavedByObjectVersion
1070
     0
  0
VISUALSTYLE
  5
4FE
102
{ACAD_XDICTIONARY
360
2C52
102
}
102
{ACAD_REACTORS
330
4FB
102
}
330
4FB
100
AcDbVisualStyle
  2
Gouraud
 70
     2
 71
     2
 72
     2
 73
     1
 90
        2
 40
-0.6
 41
30.0
 62
     5
 63
     7
 74
     0
 91
        4
 64
     7
 65
   257
 75
     1
175
     1
 42
1.0
 92
        0
 66
     7
 43
1.0
 76
     1
 77
     6
 78
     2
 67
     7
 79
     5
170
     0
171
     0
290
     0
174
     0
 93
       13
 44
0.0
173
     0
291
     1
 45
0.0
1001
ACAD
1000
AcDbSavedByObjectVersion
1070
     0
  0
VISUALSTYLE
  5
4FF
102
{ACAD_XDICTIONARY
360
2C54
102
}
102
{ACAD_REACTORS
330
4FB
102
}
330
4FB
100
AcDbVisualStyle
  2
GouraudWithEdges
 70
     3
 71
     2
 72
     2
 73
     1
 90
        2
 40
-0.6
 41
30.0
 62
     5
 63
     7
 74
     1
 91
        4
 64
     7
 65
   257
 75
     1
175
     1
 42
1.0
 92
        0
 66
   257
 43
1.0
 76
     1
 77
     6
 78
     2
 67
     7
 79
     5
170
     0
171
     0
290
     0
174
     0
 93
       13
 44
0.0
173
     0
291
     1
 45
0.0
1001
ACAD
1000
AcDbSavedByObjectVersion
1070
     0
  0
VISUALSTYLE
  5
50C
102
{ACAD_XDICTIONARY
360
2C6E
102
}
102
{ACAD_REACTORS
330
4FB
102
}
330
4FB
100
AcDbVisualStyle
  2
JitterOff
 70
    20
 71
     2
 72
     2
 73
     0
 90
        0
 40
-0.6
 41
-30.0
 62
     5
 63
     7
 74
     1
 91
        4
 64
     7
 65
   257
 75
     1
175
     1
 42
1.0
 92
       10
 66
     7
 43
1.0
 76
     1
 77
     6
 78
     2
 67
     7
 79
     5
170
     0
171
     0
290
     0
174
     0
 93
        1
 44
0.0
173
     0
291
     1
 45
0.0
1001
ACAD
1000
AcDbSavedByObjectVersion
1070
     0
  0
VISUALSTYLE
  5
509
102
{ACAD_XDICTIONARY
360
2C68
102
}
102
{ACAD_REACTORS
330
4FB
102
}
330
4FB
100
AcDbVisualStyle
  2
Linepattern
 70
    14
 71
     2
 72
     2
 73
     0
 90
        0
 40
-0.6
 41
-30.0
 62
     5
 63
     7
 74
     1
 91
        4
 64
     7
 65
   257
 75
     7
175
     7
 42
1.0
 92
        8
 66
     7
 43
1.0
 76
     1
 77
     6
 78
     2
 67
     7
 79
     5
170
     0
171
     0
290
     0
174
     0
 93
        1
 44
0.0
173
     0
291
     1
 45
0.0
1001
ACAD
1000
AcDbSavedByObjectVersion
1070
     0
  0
VISUALSTYLE
  5
50D
102
{ACAD_XDICTIONARY
360
2C70
102
}
102
{ACAD_REACTORS
330
4FB
102
}
330
4FB
100
AcDbVisualStyle
  2
OverhangOff
 70
    21
 71
     2
 72
     2
 73
     0
 90
        0
 40
-0.6
 41
-30.0
 62
     5
 63
     7
 74
     1
 91
        4
 64
     7
 65
   257
 75
     1
175
     1
 42
1.0
 92
        9
 66
     7
 43
1.0
 76
     1
 77
     6
 78
     2
 67
     7
 79
     5
170
     0
171
     0
290
     0
174
     0
 93
        1
 44
0.0
173
     0
291
     1
 45
0.0
1001
ACAD
1000
AcDbSavedByObjectVersion
1070
     0
  0
VISUALSTYLE
  5
505
102
{ACAD_XDICTIONARY
360
2C60
102
}
102
{ACAD_REACTORS
330
4FB
102
}
330
4FB
100
AcDbVisualStyle
  2
Realistic
 70
     8
 71
     2
 72
     2
 73
     0
 90
        0
 40
-0.6
 41
-30.0
 62
     5
 63
     7
 74
     1
 91
        0
 64
     7
 65
   257
 75
     1
175
     1
 42
1.0
 92
        8
 66
     8
 43
1.0
 76
     1
 77
     6
 78
     2
 67
     7
 79
     5
170
     0
171
     0
290
     0
174
     0
 93
       13
 44
0.0
173
     0
291
     0
 45
0.0
1001
ACAD
1000
AcDbSavedByObjectVersion
1070
     0
  0
VISUALSTYLE
  5
508
102
{ACAD_XDICTIONARY
360
2C66
102
}
102
{ACAD_REACTORS
330
4FB
102
}
330
4FB
100
AcDbVisualStyle
  2
Thicken
 70
    13
 71
     2
 72
     2
 73
     0
 90
        0
 40
-0.6
 41
-30.0
 62
     5
 63
     7
 74
     1
 91
        4
 64
     7
 65
   257
 75
     1
175
     1
 42
1.0
 92
       12
 66
     7
 43
1.0
 76
     1
 77
     6
 78
     2
 67
     7
 79
     5
170
     0
171
     0
290
     0
174
     0
 93
        1
 44
0.0
173
     0
291
     1
 45
0.0
1001
ACAD
1000
AcDbSavedByObjectVersion
1070
     0
  0
DICTIONARYVAR
  5
268F
102
{ACAD_REACTORS
330
4DF
102
}
330
4DF
100
DictionaryVariables
280
     0
  1
1:1
  0
DICTIONARYVAR
  5
268E
102
{ACAD_REACTORS
330
4DF
102
}
330
4DF
100
DictionaryVariables
280
     0
  1
STANDARD
  0
DICTIONARYVAR
  5
268D
102
{ACAD_REACTORS
330
4DF
102
}
330
4DF
100
DictionaryVariables
280
     0
  1
STANDARD
  0
DICTIONARYVAR
  5
4E0
102
{ACAD_REACTORS
330
4DF
102
}
330
4DF
100
DictionaryVariables
280
     0
  1
1
  0
DICTIONARYVAR
  5
2691
102
{ACAD_REACTORS
330
4DF
102
}
330
4DF
100
DictionaryVariables
280
     0
  1
0
  0
DICTIONARYVAR
  5
4E1
102
{ACAD_REACTORS
330
4DF
102
}
330
4DF
100
DictionaryVariables
280
     0
  1

  0
DICTIONARYVAR
  5
2690
102
{ACAD_REACTORS
330
4DF
102
}
330
4DF
100
DictionaryVariables
280
     0
  1
127
  0
DICTIONARYVAR
  5
2BA7
102
{ACAD_REACTORS
330
4DF
102
}
330
4DF
100
DictionaryVariables
280
     0
  1
2
  0
XRECORD
  5
2A44
102
{ACAD_REACTORS
330
2A42
102
}
330
2A42
100
AcDbXrecord
280
     1
330
250A
330
5AC
330
24CF
330
24D2
  0
DICTIONARY
  5
5AD
102
{ACAD_REACTORS
330
1D1
102
}
330
1D1
100
AcDbDictionary
281
     1
  3
PH_GRPMEMBERS
350
5AE
  0
DICTIONARY
  5
250D
102
{ACAD_REACTORS
330
1D1
102
}
330
1D1
100
AcDbDictionary
281
     1
  3
$PH$AAAA
350
250E
  3
PH_GRPMEMBERS
350
2512
  0
PH_GROUP
  5
286C
102
{ACAD_REACTORS
330
1D1
102
}
330
1D1
  0
DICTIONARY
  5
2C49
330
4D5
100
AcDbDictionary
280
     1
281
     1
  3
ACAD_XREC_ROUNDTRIP
360
2C4A
  0
DICTIONARY
  5
2C47
330
4D4
100
AcDbDictionary
280
     1
281
     1
  3
ACAD_XREC_ROUNDTRIP
360
2C48
  0
DICTIONARY
  5
4EC
330
4EB
100
AcDbDictionary
280
     1
281
     1
  3
ACAD_XREC_ROUNDTRIP
360
2C4C
  3
BUMPTILE
360
4EE
  3
DIFFUSETILE
360
4ED
  3
OPACITYTILE
360
4F1
  3
REFLECTIONTILE
360
4F0
  3
REFRACTIONTILE
360
4F2
  3
SPECULARTILE
360
4EF
  0
DICTIONARY
  5
4E4
330
4E3
100
AcDbDictionary
280
     1
281
     1
  3
ACAD_XREC_ROUNDTRIP
360
2C4B
  3
BUMPTILE
360
4E6
  3
DIFFUSETILE
360
4E5
  3
OPACITYTILE
360
4E9
  3
REFLECTIONTILE
360
4E8
  3
REFRACTIONTILE
360
4EA
  3
SPECULARTILE
360
4E7
  0
DICTIONARY
  5
4F4
330
4F3
100
AcDbDictionary
280
     1
281
     1
  3
ACAD_XREC_ROUNDTRIP
360
2C4D
  3
BUMPTILE
360
4F6
  3
DIFFUSETILE
360
4F5
  3
OPACITYTILE
360
4F9
  3
REFLECTIONTILE
360
4F8
  3
REFRACTIONTILE
360
4FA
  3
SPECULARTILE
360
4F7
  0
DICTIONARY
  5
2656
330
510
100
AcDbDictionary
280
     1
281
     1
  3
ACAD_ROUNDTRIP_2008_TABLESTYLE_CELLSTYLEMAP
360
2C42
  3
ACAD_XREC_ROUNDTRIP
360
2C74
  0
DICTIONARY
  5
2C58
330
501
100
AcDbDictionary
280
     1
281
     1
  3
ACAD_XREC_ROUNDTRIP
360
2C59
  0
DICTIONARY
  5
2C5C
330
503
100
AcDbDictionary
280
     1
281
     1
  3
ACAD_XREC_ROUNDTRIP
360
2C5D
  0
DICTIONARY
  5
2C5A
330
502
100
AcDbDictionary
280
     1
281
     1
  3
ACAD_XREC_ROUNDTRIP
360
2C5B
  0
DICTIONARY
  5
2C56
330
500
100
AcDbDictionary
280
     1
281
     1
  3
ACAD_XREC_ROUNDTRIP
360
2C57
  0
DICTIONARY
  5
2C64
330
507
100
AcDbDictionary
280
     1
281
     1
  3
ACAD_XREC_ROUNDTRIP
360
2C65
  0
DICTIONARY
  5
2C6C
330
50B
100
AcDbDictionary
280
     1
281
     1
  3
ACAD_XREC_ROUNDTRIP
360
2C6D
  0
DICTIONARY
  5
2C5E
330
504
100
AcDbDictionary
280
     1
281
     1
  3
ACAD_XREC_ROUNDTRIP
360
2C5F
  0
DICTIONARY
  5
2C62
330
506
100
AcDbDictionary
280
     1
281
     1
  3
ACAD_XREC_ROUNDTRIP
360
2C63
  0
DICTIONARY
  5
2C72
330
50E
100
AcDbDictionary
280
     1
281
     1
  3
ACAD_XREC_ROUNDTRIP
360
2C73
  0
DICTIONARY
  5
2C6A
330
50A
100
AcDbDictionary
280
     1
281
     1
  3
ACAD_XREC_ROUNDTRIP
360
2C6B
  0
DICTIONARY
  5
2C4E
330
4FC
100
AcDbDictionary
280
     1
281
     1
  3
ACAD_XREC_ROUNDTRIP
360
2C4F
  0
DICTIONARY
  5
2C50
330
4FD
100
AcDbDictionary
280
     1
281
     1
  3
ACAD_XREC_ROUNDTRIP
360
2C51
  0
DICTIONARY
  5
2C52
330
4FE
100
AcDbDictionary
280
     1
281
     1
  3
ACAD_XREC_ROUNDTRIP
360
2C53
  0
DICTIONARY
  5
2C54
330
4FF
100
AcDbDictionary
280
     1
281
     1
  3
ACAD_XREC_ROUNDTRIP
360
2C55
  0
DICTIONARY
  5
2C6E
330
50C
100
AcDbDictionary
280
     1
281
     1
  3
ACAD_XREC_ROUNDTRIP
360
2C6F
  0
DICTIONARY
  5
2C68
330
509
100
AcDbDictionary
280
     1
281
     1
  3
ACAD_XREC_ROUNDTRIP
360
2C69
  0
DICTIONARY
  5
2C70
330
50D
100
AcDbDictionary
280
     1
281
     1
  3
ACAD_XREC_ROUNDTRIP
360
2C71
  0
DICTIONARY
  5
2C60
330
505
100
AcDbDictionary
280
     1
281
     1
  3
ACAD_XREC_ROUNDTRIP
360
2C61
  0
DICTIONARY
  5
2C66
330
508
100
AcDbDictionary
280
     1
281
     1
  3
ACAD_XREC_ROUNDTRIP
360
2C67
  0
PH_GROUP
  5
5AE
102
{ACAD_REACTORS
330
5AD
102
}
330
5AD
  0
DICTIONARY
  5
250E
102
{ACAD_REACTORS
330
250D
102
}
330
250D
100
AcDbDictionary
281
     1
  3
$PH$AAAA
350
250F
  3
PH_GRPMEMBERS
350
2511
  0
PH_GROUP
  5
2512
102
{ACAD_REACTORS
330
250D
102
}
330
250D
  0
XRECORD
  5
2C4A
102
{ACAD_REACTORS
330
2C49
102
}
330
2C49
100
AcDbXrecord
280
     1
102
SHADEPLOT
 70
     0
102
SHADEPLOTRESLEVEL
 70
     2
102
SHADEPLOTCUSTOMDPI
 70
   300
  0
XRECORD
  5
2C48
102
{ACAD_REACTORS
330
2C47
102
}
330
2C47
100
AcDbXrecord
280
     1
102
SHADEPLOT
 70
     0
102
SHADEPLOTRESLEVEL
 70
     2
102
SHADEPLOTCUSTOMDPI
 70
   300
  0
XRECORD
  5
2C4C
102
{ACAD_REACTORS
330
4EC
102
}
330
4EC
100
AcDbXrecord
280
     1
102
MATERIAL
148
0.0
149
0.0
149
0.0
 93
        0
 94
      127
282
     0
 72
     0
 77
     0
171
     0
175
     0
179
     0
273
     0
  0
XRECORD
  5
4EE
102
{ACAD_REACTORS
330
4EC
102
}
330
4EC
100
AcDbXrecord
280
     1
270
     1
271
     1
  0
XRECORD
  5
4ED
102
{ACAD_REACTORS
330
4EC
102
}
330
4EC
100
AcDbXrecord
280
     1
270
     1
271
     1
  0
XRECORD
  5
4F1
102
{ACAD_REACTORS
330
4EC
102
}
330
4EC
100
AcDbXrecord
280
     1
270
     1
271
     1
  0
XRECORD
  5
4F0
102
{ACAD_REACTORS
330
4EC
102
}
330
4EC
100
AcDbXrecord
280
     1
270
     1
271
     1
  0
XRECORD
  5
4F2
102
{ACAD_REACTORS
330
4EC
102
}
330
4EC
100
AcDbXrecord
280
     1
270
     1
271
     1
  0
XRECORD
  5
4EF
102
{ACAD_REACTORS
330
4EC
102
}
330
4EC
100
AcDbXrecord
280
     1
270
     1
271
     1
  0
XRECORD
  5
2C4B
102
{ACAD_REACTORS
330
4E4
102
}
330
4E4
100
AcDbXrecord
280
     1
102
MATERIAL
148
0.0
149
0.0
149
0.0
 93
        0
 94
      127
282
     0
 72
     0
 77
     0
171
     0
175
     0
179
     0
273
     0
  0
XRECORD
  5
4E6
102
{ACAD_REACTORS
330
4E4
102
}
330
4E4
100
AcDbXrecord
280
     1
270
     1
271
     1
  0
XRECORD
  5
4E5
102
{ACAD_REACTORS
330
4E4
102
}
330
4E4
100
AcDbXrecord
280
     1
270
     1
271
     1
  0
XRECORD
  5
4E9
102
{ACAD_REACTORS
330
4E4
102
}
330
4E4
100
AcDbXrecord
280
     1
270
     1
271
     1
  0
XRECORD
  5
4E8
102
{ACAD_REACTORS
330
4E4
102
}
330
4E4
100
AcDbXrecord
280
     1
270
     1
271
     1
  0
XRECORD
  5
4EA
102
{ACAD_REACTORS
330
4E4
102
}
330
4E4
100
AcDbXrecord
280
     1
270
     1
271
     1
  0
XRECORD
  5
4E7
102
{ACAD_REACTORS
330
4E4
102
}
330
4E4
100
AcDbXrecord
280
     1
270
     1
271
     1
  0
XRECORD
  5
2C4D
102
{ACAD_REACTORS
330
4F4
102
}
330
4F4
100
AcDbXrecord
280
     1
102
MATERIAL
148
0.0
149
0.0
149
0.0
 93
        0
 94
      127
282
     0
 72
     0
 77
     0
171
     0
175
     0
179
     0
273
     0
  0
XRECORD
  5
4F6
102
{ACAD_REACTORS
330
4F4
102
}
330
4F4
100
AcDbXrecord
280
     1
270
     1
271
     1
  0
XRECORD
  5
4F5
102
{ACAD_REACTORS
330
4F4
102
}
330
4F4
100
AcDbXrecord
280
     1
270
     1
271
     1
  0
XRECORD
  5
4F9
102
{ACAD_REACTORS
330
4F4
102
}
330
4F4
100
AcDbXrecord
280
     1
270
     1
271
     1
  0
XRECORD
  5
4F8
102
{ACAD_REACTORS
330
4F4
102
}
330
4F4
100
AcDbXrecord
280
     1
270
     1
271
     1
  0
XRECORD
  5
4FA
102
{ACAD_REACTORS
330
4F4
102
}
330
4F4
100
AcDbXrecord
280
     1
270
     1
271
     1
  0
XRECORD
  5
4F7
102
{ACAD_REACTORS
330
4F4
102
}
330
4F4
100
AcDbXrecord
280
     1
270
     1
271
     1
  0
CELLSTYLEMAP
  5
2C42
102
{ACAD_REACTORS
330
2656
102
}
330
2656
100
AcDbCellStyleMap
 90
        3
300
CELLSTYLE
  1
TABLEFORMAT_BEGIN
 90
        5
170
     1
 91
        0
 92
    32768
 62
   257
 93
        1
300
CONTENTFORMAT
  1
CONTENTFORMAT_BEGIN
 90
        0
 91
        0
 92
      512
 93
        0
300

 40
0.0
140
1.0
 94
        5
 62
     0
340
F
144
6.0
309
CONTENTFORMAT_END
171
     1
301
MARGIN
  1
CELLMARGIN_BEGIN
 40
1.5
 40
1.5
 40
1.5
 40
1.5
 40
4.5
 40
4.5
309
CELLMARGIN_END
 94
        6
 95
        1
302
GRIDFORMAT
  1
GRIDFORMAT_BEGIN
 90
        0
 91
        1
 62
     0
 92
       -2
340
0
 93
        0
 40
1.125
309
GRIDFORMAT_END
 95
        2
302
GRIDFORMAT
  1
GRIDFORMAT_BEGIN
 90
        0
 91
        1
 62
     0
 92
       -2
340
0
 93
        0
 40
1.125
309
GRIDFORMAT_END
 95
        4
302
GRIDFORMAT
  1
GRIDFORMAT_BEGIN
 90
        0
 91
        1
 62
     0
 92
       -2
340
0
 93
        0
 40
1.125
309
GRIDFORMAT_END
 95
        8
302
GRIDFORMAT
  1
GRIDFORMAT_BEGIN
 90
        0
 91
        1
 62
     0
 92
       -2
340
0
 93
        0
 40
1.125
309
GRIDFORMAT_END
 95
       16
302
GRIDFORMAT
  1
GRIDFORMAT_BEGIN
 90
        0
 91
        1
 62
     0
 92
       -2
340
0
 93
        0
 40
1.125
309
GRIDFORMAT_END
 95
       32
302
GRIDFORMAT
  1
GRIDFORMAT_BEGIN
 90
        0
 91
        1
 62
     0
 92
       -2
340
0
 93
        0
 40
1.125
309
GRIDFORMAT_END
309
TABLEFORMAT_END
  1
CELLSTYLE_BEGIN
 90
        1
 91
        1
300
_TITLE
309
CELLSTYLE_END
300
CELLSTYLE
  1
TABLEFORMAT_BEGIN
 90
        5
170
     1
 91
        0
 92
        0
 62
   257
 93
        1
300
CONTENTFORMAT
  1
CONTENTFORMAT_BEGIN
 90
        0
 91
        0
 92
      512
 93
        0
300

 40
0.0
140
1.0
 94
        5
 62
     0
340
F
144
4.5
309
CONTENTFORMAT_END
171
     1
301
MARGIN
  1
CELLMARGIN_BEGIN
 40
1.5
 40
1.5
 40
1.5
 40
1.5
 40
4.5
 40
4.5
309
CELLMARGIN_END
 94
        6
 95
        1
302
GRIDFORMAT
  1
GRIDFORMAT_BEGIN
 90
        0
 91
        1
 62
     0
 92
       -2
340
0
 93
        0
 40
1.125
309
GRIDFORMAT_END
 95
        2
302
GRIDFORMAT
  1
GRIDFORMAT_BEGIN
 90
        0
 91
        1
 62
     0
 92
       -2
340
0
 93
        0
 40
1.125
309
GRIDFORMAT_END
 95
        4
302
GRIDFORMAT
  1
GRIDFORMAT_BEGIN
 90
        0
 91
        1
 62
     0
 92
       -2
340
0
 93
        0
 40
1.125
309
GRIDFORMAT_END
 95
        8
302
GRIDFORMAT
  1
GRIDFORMAT_BEGIN
 90
        0
 91
        1
 62
     0
 92
       -2
340
0
 93
        0
 40
1.125
309
GRIDFORMAT_END
 95
       16
302
GRIDFORMAT
  1
GRIDFORMAT_BEGIN
 90
        0
 91
        1
 62
     0
 92
       -2
340
0
 93
        0
 40
1.125
309
GRIDFORMAT_END
 95
       32
302
GRIDFORMAT
  1
GRIDFORMAT_BEGIN
 90
        0
 91
        1
 62
     0
 92
       -2
340
0
 93
        0
 40
1.125
309
GRIDFORMAT_END
309
TABLEFORMAT_END
  1
CELLSTYLE_BEGIN
 90
        2
 91
        1
300
_HEADER
309
CELLSTYLE_END
300
CELLSTYLE
  1
TABLEFORMAT_BEGIN
 90
        5
170
     1
 91
        0
 92
        0
 62
   257
 93
        1
300
CONTENTFORMAT
  1
CONTENTFORMAT_BEGIN
 90
        0
 91
        0
 92
      512
 93
        0
300

 40
0.0
140
1.0
 94
        2
 62
     0
340
F
144
4.5
309
CONTENTFORMAT_END
171
     1
301
MARGIN
  1
CELLMARGIN_BEGIN
 40
1.5
 40
1.5
 40
1.5
 40
1.5
 40
4.5
 40
4.5
309
CELLMARGIN_END
 94
        6
 95
        1
302
GRIDFORMAT
  1
GRIDFORMAT_BEGIN
 90
        0
 91
        1
 62
     0
 92
       -2
340
0
 93
        0
 40
1.125
309
GRIDFORMAT_END
 95
        2
302
GRIDFORMAT
  1
GRIDFORMAT_BEGIN
 90
        0
 91
        1
 62
     0
 92
       -2
340
0
 93
        0
 40
1.125
309
GRIDFORMAT_END
 95
        4
302
GRIDFORMAT
  1
GRIDFORMAT_BEGIN
 90
        0
 91
        1
 62
     0
 92
       -2
340
0
 93
        0
 40
1.125
309
GRIDFORMAT_END
 95
        8
302
GRIDFORMAT
  1
GRIDFORMAT_BEGIN
 90
        0
 91
        1
 62
     0
 92
       -2
340
0
 93
        0
 40
1.125
309
GRIDFORMAT_END
 95
       16
302
GRIDFORMAT
  1
GRIDFORMAT_BEGIN
 90
        0
 91
        1
 62
     0
 92
       -2
340
0
 93
        0
 40
1.125
309
GRIDFORMAT_END
 95
       32
302
GRIDFORMAT
  1
GRIDFORMAT_BEGIN
 90
        0
 91
        1
 62
     0
 92
       -2
340
0
 93
        0
 40
1.125
309
GRIDFORMAT_END
309
TABLEFORMAT_END
  1
CELLSTYLE_BEGIN
 90
        3
 91
        2
300
_DATA
309
CELLSTYLE_END
  0
XRECORD
  5
2C74
102
{ACAD_REACTORS
330
2656
102
}
330
2656
100
AcDbXrecord
280
     1
102
ACAD_ROUNDTRIP_PRE2007_TABLESTYLE
 90
      512
 91
        0
  1

 92
      512
 93
        0
  2

 94
      512
 95
        0
  3

  0
XRECORD
  5
2C59
102
{ACAD_REACTORS
330
2C58
102
}
330
2C58
100
AcDbXrecord
280
     1
102
RTVSPropertyOp0
 70
     1
102
RTVSPropertyOp1
 70
     1
102
RTVSPropertyOp2
 70
     1
102
RTVSPropertyOp3
 70
     1
102
RTVSPropertyOp4
 70
     1
102
RTVSPropertyOp5
 70
     1
102
RTVSPropertyOp6
 70
     1
102
RTVSPropertyOp7
 70
     1
102
RTVSPropertyOp8
 70
     1
102
RTVSPropertyOp9
 70
     1
102
RTVSPropertyOp10
 70
     1
102
RTVSPropertyOp11
 70
     1
102
RTVSPropertyOp12
 70
     1
102
RTVSPropertyOp13
 70
     1
102
RTVSPropertyOp14
 70
     1
102
RTVSPropertyOp15
 70
     1
102
RTVSPropertyOp16
 70
     1
102
RTVSPropertyOp17
 70
     1
102
RTVSPropertyOp18
 70
     1
102
RTVSPropertyOp19
 70
     1
102
RTVSPropertyOp20
 70
     1
102
RTVSPropertyOp21
 70
     1
102
RTVSPropertyOp22
 70
     1
102
RTVSPropertyOp23
 70
     1
102
RTVSPropertyOp24
 70
     1
102
RTVSPropertyOp25
 70
     1
102
RTVSPropertyOp26
 70
     1
102
RTVSPropertyOp27
 70
     1
  0
XRECORD
  5
2C5D
102
{ACAD_REACTORS
330
2C5C
102
}
330
2C5C
100
AcDbXrecord
280
     1
102
RTVSPropertyOp0
 70
     1
102
RTVSPropertyOp1
 70
     1
102
RTVSPropertyOp2
 70
     1
102
RTVSPropertyOp3
 70
     1
102
RTVSPropertyOp4
 70
     1
102
RTVSPropertyOp5
 70
     1
102
RTVSPropertyOp6
 70
     1
102
RTVSPropertyOp7
 70
     1
102
RTVSPropertyOp8
 70
     1
102
RTVSPropertyOp9
 70
     1
102
RTVSPropertyOp10
 70
     1
102
RTVSPropertyOp11
 70
     1
102
RTVSPropertyOp12
 70
     1
102
RTVSPropertyOp13
 70
     1
102
RTVSPropertyOp14
 70
     1
102
RTVSPropertyOp15
 70
     1
102
RTVSPropertyOp16
 70
     1
102
RTVSPropertyOp17
 70
     1
102
RTVSPropertyOp18
 70
     1
102
RTVSPropertyOp19
 70
     1
102
RTVSPropertyOp20
 70
     1
102
RTVSPropertyOp21
 70
     1
102
RTVSPropertyOp22
 70
     1
102
RTVSPropertyOp23
 70
     1
102
RTVSPropertyOp24
 70
     1
102
RTVSPropertyOp25
 70
     1
102
RTVSPropertyOp26
 70
     1
102
RTVSPropertyOp27
 70
     1
  0
XRECORD
  5
2C5B
102
{ACAD_REACTORS
330
2C5A
102
}
330
2C5A
100
AcDbXrecord
280
     1
102
RTVSPropertyOp0
 70
     1
102
RTVSPropertyOp1
 70
     1
102
RTVSPropertyOp2
 70
     1
102
RTVSPropertyOp3
 70
     1
102
RTVSPropertyOp4
 70
     1
102
RTVSPropertyOp5
 70
     1
102
RTVSPropertyOp6
 70
     1
102
RTVSPropertyOp7
 70
     1
102
RTVSPropertyOp8
 70
     1
102
RTVSPropertyOp9
 70
     1
102
RTVSPropertyOp10
 70
     1
102
RTVSPropertyOp11
 70
     1
102
RTVSPropertyOp12
 70
     1
102
RTVSPropertyOp13
 70
     1
102
RTVSPropertyOp14
 70
     1
102
RTVSPropertyOp15
 70
     1
102
RTVSPropertyOp16
 70
     1
102
RTVSPropertyOp17
 70
     1
102
RTVSPropertyOp18
 70
     1
102
RTVSPropertyOp19
 70
     1
102
RTVSPropertyOp20
 70
     1
102
RTVSPropertyOp21
 70
     1
102
RTVSPropertyOp22
 70
     1
102
RTVSPropertyOp23
 70
     1
102
RTVSPropertyOp24
 70
     1
102
RTVSPropertyOp25
 70
     1
102
RTVSPropertyOp26
 70
     1
102
RTVSPropertyOp27
 70
     1
  0
XRECORD
  5
2C57
102
{ACAD_REACTORS
330
2C56
102
}
330
2C56
100
AcDbXrecord
280
     1
102
RTVSPropertyOp0
 70
     1
102
RTVSPropertyOp1
 70
     1
102
RTVSPropertyOp2
 70
     1
102
RTVSPropertyOp3
 70
     1
102
RTVSPropertyOp4
 70
     1
102
RTVSPropertyOp5
 70
     1
102
RTVSPropertyOp6
 70
     1
102
RTVSPropertyOp7
 70
     1
102
RTVSPropertyOp8
 70
     1
102
RTVSPropertyOp9
 70
     1
102
RTVSPropertyOp10
 70
     1
102
RTVSPropertyOp11
 70
     1
102
RTVSPropertyOp12
 70
     1
102
RTVSPropertyOp13
 70
     1
102
RTVSPropertyOp14
 70
     1
102
RTVSPropertyOp15
 70
     1
102
RTVSPropertyOp16
 70
     1
102
RTVSPropertyOp17
 70
     1
102
RTVSPropertyOp18
 70
     1
102
RTVSPropertyOp19
 70
     1
102
RTVSPropertyOp20
 70
     1
102
RTVSPropertyOp21
 70
     1
102
RTVSPropertyOp22
 70
     1
102
RTVSPropertyOp23
 70
     1
102
RTVSPropertyOp24
 70
     1
102
RTVSPropertyOp25
 70
     1
102
RTVSPropertyOp26
 70
     1
102
RTVSPropertyOp27
 70
     1
  0
XRECORD
  5
2C65
102
{ACAD_REACTORS
330
2C64
102
}
330
2C64
100
AcDbXrecord
280
     1
102
RTVSPropertyOp0
 70
     1
102
RTVSPropertyOp1
 70
     1
102
RTVSPropertyOp2
 70
     1
102
RTVSPropertyOp3
 70
     1
102
RTVSPropertyOp4
 70
     1
102
RTVSPropertyOp5
 70
     1
102
RTVSPropertyOp6
 70
     1
102
RTVSPropertyOp7
 70
     1
102
RTVSPropertyOp8
 70
     1
102
RTVSPropertyOp9
 70
     1
102
RTVSPropertyOp10
 70
     1
102
RTVSPropertyOp11
 70
     1
102
RTVSPropertyOp12
 70
     1
102
RTVSPropertyOp13
 70
     1
102
RTVSPropertyOp14
 70
     1
102
RTVSPropertyOp15
 70
     1
102
RTVSPropertyOp16
 70
     1
102
RTVSPropertyOp17
 70
     1
102
RTVSPropertyOp18
 70
     1
102
RTVSPropertyOp19
 70
     1
102
RTVSPropertyOp20
 70
     1
102
RTVSPropertyOp21
 70
     1
102
RTVSPropertyOp22
 70
     1
102
RTVSPropertyOp23
 70
     1
102
RTVSPropertyOp24
 70
     1
102
RTVSPropertyOp25
 70
     1
102
RTVSPropertyOp26
 70
     1
102
RTVSPropertyOp27
 70
     1
  0
XRECORD
  5
2C6D
102
{ACAD_REACTORS
330
2C6C
102
}
330
2C6C
100
AcDbXrecord
280
     1
102
RTVSPropertyOp0
 70
     1
102
RTVSPropertyOp1
 70
     1
102
RTVSPropertyOp2
 70
     1
102
RTVSPropertyOp3
 70
     1
102
RTVSPropertyOp4
 70
     1
102
RTVSPropertyOp5
 70
     1
102
RTVSPropertyOp6
 70
     1
102
RTVSPropertyOp7
 70
     1
102
RTVSPropertyOp8
 70
     1
102
RTVSPropertyOp9
 70
     1
102
RTVSPropertyOp10
 70
     1
102
RTVSPropertyOp11
 70
     1
102
RTVSPropertyOp12
 70
     1
102
RTVSPropertyOp13
 70
     1
102
RTVSPropertyOp14
 70
     1
102
RTVSPropertyOp15
 70
     1
102
RTVSPropertyOp16
 70
     1
102
RTVSPropertyOp17
 70
     1
102
RTVSPropertyOp18
 70
     1
102
RTVSPropertyOp19
 70
     1
102
RTVSPropertyOp20
 70
     1
102
RTVSPropertyOp21
 70
     1
102
RTVSPropertyOp22
 70
     1
102
RTVSPropertyOp23
 70
     1
102
RTVSPropertyOp24
 70
     1
102
RTVSPropertyOp25
 70
     1
102
RTVSPropertyOp26
 70
     1
102
RTVSPropertyOp27
 70
     1
  0
XRECORD
  5
2C5F
102
{ACAD_REACTORS
330
2C5E
102
}
330
2C5E
100
AcDbXrecord
280
     1
102
RTVSPropertyOp0
 70
     1
102
RTVSPropertyOp1
 70
     1
102
RTVSPropertyOp2
 70
     1
102
RTVSPropertyOp3
 70
     1
102
RTVSPropertyOp4
 70
     1
102
RTVSPropertyOp5
 70
     1
102
RTVSPropertyOp6
 70
     1
102
RTVSPropertyOp7
 70
     1
102
RTVSPropertyOp8
 70
     1
102
RTVSPropertyOp9
 70
     1
102
RTVSPropertyOp10
 70
     1
102
RTVSPropertyOp11
 70
     1
102
RTVSPropertyOp12
 70
     1
102
RTVSPropertyOp13
 70
     1
102
RTVSPropertyOp14
 70
     1
102
RTVSPropertyOp15
 70
     1
102
RTVSPropertyOp16
 70
     1
102
RTVSPropertyOp17
 70
     1
102
RTVSPropertyOp18
 70
     1
102
RTVSPropertyOp19
 70
     1
102
RTVSPropertyOp20
 70
     1
102
RTVSPropertyOp21
 70
     1
102
RTVSPropertyOp22
 70
     1
102
RTVSPropertyOp23
 70
     1
102
RTVSPropertyOp24
 70
     1
102
RTVSPropertyOp25
 70
     1
102
RTVSPropertyOp26
 70
     1
102
RTVSPropertyOp27
 70
     1
  0
XRECORD
  5
2C63
102
{ACAD_REACTORS
330
2C62
102
}
330
2C62
100
AcDbXrecord
280
     1
102
RTVSPropertyOp0
 70
     1
102
RTVSPropertyOp1
 70
     1
102
RTVSPropertyOp2
 70
     1
102
RTVSPropertyOp3
 70
     1
102
RTVSPropertyOp4
 70
     1
102
RTVSPropertyOp5
 70
     1
102
RTVSPropertyOp6
 70
     1
102
RTVSPropertyOp7
 70
     1
102
RTVSPropertyOp8
 70
     1
102
RTVSPropertyOp9
 70
     1
102
RTVSPropertyOp10
 70
     1
102
RTVSPropertyOp11
 70
     1
102
RTVSPropertyOp12
 70
     1
102
RTVSPropertyOp13
 70
     1
102
RTVSPropertyOp14
 70
     1
102
RTVSPropertyOp15
 70
     1
102
RTVSPropertyOp16
 70
     1
102
RTVSPropertyOp17
 70
     1
102
RTVSPropertyOp18
 70
     1
102
RTVSPropertyOp19
 70
     1
102
RTVSPropertyOp20
 70
     1
102
RTVSPropertyOp21
 70
     1
102
RTVSPropertyOp22
 70
     1
102
RTVSPropertyOp23
 70
     1
102
RTVSPropertyOp24
 70
     1
102
RTVSPropertyOp25
 70
     1
102
RTVSPropertyOp26
 70
     1
102
RTVSPropertyOp27
 70
     1
  0
XRECORD
  5
2C73
102
{ACAD_REACTORS
330
2C72
102
}
330
2C72
100
AcDbXrecord
280
     1
102
RTVSPropertyOp0
 70
     0
102
RTVSPropertyOp1
 70
     0
102
RTVSPropertyOp2
 70
     0
102
RTVSPropertyOp3
 70
     0
102
RTVSPropertyOp4
 70
     0
102
RTVSPropertyOp5
 70
     0
102
RTVSPropertyOp6
 70
     0
102
RTVSPropertyOp7
 70
     0
102
RTVSPropertyOp8
 70
     0
102
RTVSPropertyOp9
 70
     0
102
RTVSPropertyOp10
 70
     0
102
RTVSPropertyOp11
 70
     0
102
RTVSPropertyOp12
 70
     0
102
RTVSPropertyOp13
 70
     0
102
RTVSPropertyOp14
 70
     2
102
RTVSPropertyOp15
 70
     0
102
RTVSPropertyOp16
 70
     0
102
RTVSPropertyOp17
 70
     0
102
RTVSPropertyOp18
 70
     0
102
RTVSPropertyOp19
 70
     0
102
RTVSPropertyOp20
 70
     0
102
RTVSPropertyOp21
 70
     0
102
RTVSPropertyOp22
 70
     0
102
RTVSPropertyOp23
 70
     0
102
RTVSPropertyOp24
 70
     0
102
RTVSPropertyOp25
 70
     0
102
RTVSPropertyOp26
 70
     0
102
RTVSPropertyOp27
 70
     0
  0
XRECORD
  5
2C6B
102
{ACAD_REACTORS
330
2C6A
102
}
330
2C6A
100
AcDbXrecord
280
     1
102
RTVSPropertyOp0
 70
     1
102
RTVSPropertyOp1
 70
     1
102
RTVSPropertyOp2
 70
     1
102
RTVSPropertyOp3
 70
     1
102
RTVSPropertyOp4
 70
     1
102
RTVSPropertyOp5
 70
     1
102
RTVSPropertyOp6
 70
     1
102
RTVSPropertyOp7
 70
     1
102
RTVSPropertyOp8
 70
     1
102
RTVSPropertyOp9
 70
     1
102
RTVSPropertyOp10
 70
     1
102
RTVSPropertyOp11
 70
     1
102
RTVSPropertyOp12
 70
     1
102
RTVSPropertyOp13
 70
     1
102
RTVSPropertyOp14
 70
     1
102
RTVSPropertyOp15
 70
     1
102
RTVSPropertyOp16
 70
     1
102
RTVSPropertyOp17
 70
     1
102
RTVSPropertyOp18
 70
     1
102
RTVSPropertyOp19
 70
     1
102
RTVSPropertyOp20
 70
     1
102
RTVSPropertyOp21
 70
     1
102
RTVSPropertyOp22
 70
     1
102
RTVSPropertyOp23
 70
     1
102
RTVSPropertyOp24
 70
     1
102
RTVSPropertyOp25
 70
     1
102
RTVSPropertyOp26
 70
     1
102
RTVSPropertyOp27
 70
     1
  0
XRECORD
  5
2C4F
102
{ACAD_REACTORS
330
2C4E
102
}
330
2C4E
100
AcDbXrecord
280
     1
102
RTVSPropertyOp0
 70
     1
102
RTVSPropertyOp1
 70
     1
102
RTVSPropertyOp2
 70
     1
102
RTVSPropertyOp3
 70
     1
102
RTVSPropertyOp4
 70
     1
102
RTVSPropertyOp5
 70
     1
102
RTVSPropertyOp6
 70
     1
102
RTVSPropertyOp7
 70
     1
102
RTVSPropertyOp8
 70
     1
102
RTVSPropertyOp9
 70
     1
102
RTVSPropertyOp10
 70
     1
102
RTVSPropertyOp11
 70
     1
102
RTVSPropertyOp12
 70
     1
102
RTVSPropertyOp13
 70
     1
102
RTVSPropertyOp14
 70
     1
102
RTVSPropertyOp15
 70
     1
102
RTVSPropertyOp16
 70
     1
102
RTVSPropertyOp17
 70
     1
102
RTVSPropertyOp18
 70
     1
102
RTVSPropertyOp19
 70
     1
102
RTVSPropertyOp20
 70
     1
102
RTVSPropertyOp21
 70
     1
102
RTVSPropertyOp22
 70
     1
102
RTVSPropertyOp23
 70
     1
102
RTVSPropertyOp24
 70
     1
102
RTVSPropertyOp25
 70
     1
102
RTVSPropertyOp26
 70
     1
102
RTVSPropertyOp27
 70
     1
  0
XRECORD
  5
2C51
102
{ACAD_REACTORS
330
2C50
102
}
330
2C50
100
AcDbXrecord
280
     1
102
RTVSPropertyOp0
 70
     1
102
RTVSPropertyOp1
 70
     1
102
RTVSPropertyOp2
 70
     1
102
RTVSPropertyOp3
 70
     1
102
RTVSPropertyOp4
 70
     1
102
RTVSPropertyOp5
 70
     1
102
RTVSPropertyOp6
 70
     1
102
RTVSPropertyOp7
 70
     1
102
RTVSPropertyOp8
 70
     1
102
RTVSPropertyOp9
 70
     1
102
RTVSPropertyOp10
 70
     1
102
RTVSPropertyOp11
 70
     1
102
RTVSPropertyOp12
 70
     1
102
RTVSPropertyOp13
 70
     1
102
RTVSPropertyOp14
 70
     1
102
RTVSPropertyOp15
 70
     1
102
RTVSPropertyOp16
 70
     1
102
RTVSPropertyOp17
 70
     1
102
RTVSPropertyOp18
 70
     1
102
RTVSPropertyOp19
 70
     1
102
RTVSPropertyOp20
 70
     1
102
RTVSPropertyOp21
 70
     1
102
RTVSPropertyOp22
 70
     1
102
RTVSPropertyOp23
 70
     1
102
RTVSPropertyOp24
 70
     1
102
RTVSPropertyOp25
 70
     1
102
RTVSPropertyOp26
 70
     1
102
RTVSPropertyOp27
 70
     1
  0
XRECORD
  5
2C53
102
{ACAD_REACTORS
330
2C52
102
}
330
2C52
100
AcDbXrecord
280
     1
102
RTVSPropertyOp0
 70
     1
102
RTVSPropertyOp1
 70
     1
102
RTVSPropertyOp2
 70
     1
102
RTVSPropertyOp3
 70
     1
102
RTVSPropertyOp4
 70
     1
102
RTVSPropertyOp5
 70
     1
102
RTVSPropertyOp6
 70
     1
102
RTVSPropertyOp7
 70
     1
102
RTVSPropertyOp8
 70
     1
102
RTVSPropertyOp9
 70
     1
102
RTVSPropertyOp10
 70
     1
102
RTVSPropertyOp11
 70
     1
102
RTVSPropertyOp12
 70
     1
102
RTVSPropertyOp13
 70
     1
102
RTVSPropertyOp14
 70
     1
102
RTVSPropertyOp15
 70
     1
102
RTVSPropertyOp16
 70
     1
102
RTVSPropertyOp17
 70
     1
102
RTVSPropertyOp18
 70
     1
102
RTVSPropertyOp19
 70
     1
102
RTVSPropertyOp20
 70
     1
102
RTVSPropertyOp21
 70
     1
102
RTVSPropertyOp22
 70
     1
102
RTVSPropertyOp23
 70
     1
102
RTVSPropertyOp24
 70
     1
102
RTVSPropertyOp25
 70
     1
102
RTVSPropertyOp26
 70
     1
102
RTVSPropertyOp27
 70
     1
  0
XRECORD
  5
2C55
102
{ACAD_REACTORS
330
2C54
102
}
330
2C54
100
AcDbXrecord
280
     1
102
RTVSPropertyOp0
 70
     1
102
RTVSPropertyOp1
 70
     1
102
RTVSPropertyOp2
 70
     1
102
RTVSPropertyOp3
 70
     1
102
RTVSPropertyOp4
 70
     1
102
RTVSPropertyOp5
 70
     1
102
RTVSPropertyOp6
 70
     1
102
RTVSPropertyOp7
 70
     1
102
RTVSPropertyOp8
 70
     1
102
RTVSPropertyOp9
 70
     1
102
RTVSPropertyOp10
 70
     1
102
RTVSPropertyOp11
 70
     1
102
RTVSPropertyOp12
 70
     1
102
RTVSPropertyOp13
 70
     1
102
RTVSPropertyOp14
 70
     1
102
RTVSPropertyOp15
 70
     1
102
RTVSPropertyOp16
 70
     1
102
RTVSPropertyOp17
 70
     1
102
RTVSPropertyOp18
 70
     1
102
RTVSPropertyOp19
 70
     1
102
RTVSPropertyOp20
 70
     1
102
RTVSPropertyOp21
 70
     1
102
RTVSPropertyOp22
 70
     1
102
RTVSPropertyOp23
 70
     1
102
RTVSPropertyOp24
 70
     1
102
RTVSPropertyOp25
 70
     1
102
RTVSPropertyOp26
 70
     1
102
RTVSPropertyOp27
 70
     1
  0
XRECORD
  5
2C6F
102
{ACAD_REACTORS
330
2C6E
102
}
330
2C6E
100
AcDbXrecord
280
     1
102
RTVSPropertyOp0
 70
     0
102
RTVSPropertyOp1
 70
     0
102
RTVSPropertyOp2
 70
     0
102
RTVSPropertyOp3
 70
     0
102
RTVSPropertyOp4
 70
     0
102
RTVSPropertyOp5
 70
     0
102
RTVSPropertyOp6
 70
     0
102
RTVSPropertyOp7
 70
     0
102
RTVSPropertyOp8
 70
     0
102
RTVSPropertyOp9
 70
     0
102
RTVSPropertyOp10
 70
     0
102
RTVSPropertyOp11
 70
     0
102
RTVSPropertyOp12
 70
     0
102
RTVSPropertyOp13
 70
     0
102
RTVSPropertyOp14
 70
     2
102
RTVSPropertyOp15
 70
     0
102
RTVSPropertyOp16
 70
     0
102
RTVSPropertyOp17
 70
     0
102
RTVSPropertyOp18
 70
     0
102
RTVSPropertyOp19
 70
     0
102
RTVSPropertyOp20
 70
     0
102
RTVSPropertyOp21
 70
     0
102
RTVSPropertyOp22
 70
     0
102
RTVSPropertyOp23
 70
     0
102
RTVSPropertyOp24
 70
     0
102
RTVSPropertyOp25
 70
     0
102
RTVSPropertyOp26
 70
     0
102
RTVSPropertyOp27
 70
     0
  0
XRECORD
  5
2C69
102
{ACAD_REACTORS
330
2C68
102
}
330
2C68
100
AcDbXrecord
280
     1
102
RTVSPropertyOp0
 70
     1
102
RTVSPropertyOp1
 70
     1
102
RTVSPropertyOp2
 70
     1
102
RTVSPropertyOp3
 70
     1
102
RTVSPropertyOp4
 70
     1
102
RTVSPropertyOp5
 70
     1
102
RTVSPropertyOp6
 70
     1
102
RTVSPropertyOp7
 70
     1
102
RTVSPropertyOp8
 70
     1
102
RTVSPropertyOp9
 70
     1
102
RTVSPropertyOp10
 70
     1
102
RTVSPropertyOp11
 70
     1
102
RTVSPropertyOp12
 70
     1
102
RTVSPropertyOp13
 70
     1
102
RTVSPropertyOp14
 70
     1
102
RTVSPropertyOp15
 70
     1
102
RTVSPropertyOp16
 70
     1
102
RTVSPropertyOp17
 70
     1
102
RTVSPropertyOp18
 70
     1
102
RTVSPropertyOp19
 70
     1
102
RTVSPropertyOp20
 70
     1
102
RTVSPropertyOp21
 70
     1
102
RTVSPropertyOp22
 70
     1
102
RTVSPropertyOp23
 70
     1
102
RTVSPropertyOp24
 70
     1
102
RTVSPropertyOp25
 70
     1
102
RTVSPropertyOp26
 70
     1
102
RTVSPropertyOp27
 70
     1
  0
XRECORD
  5
2C71
102
{ACAD_REACTORS
330
2C70
102
}
330
2C70
100
AcDbXrecord
280
     1
102
RTVSPropertyOp0
 70
     0
102
RTVSPropertyOp1
 70
     0
102
RTVSPropertyOp2
 70
     0
102
RTVSPropertyOp3
 70
     0
102
RTVSPropertyOp4
 70
     0
102
RTVSPropertyOp5
 70
     0
102
RTVSPropertyOp6
 70
     0
102
RTVSPropertyOp7
 70
     0
102
RTVSPropertyOp8
 70
     0
102
RTVSPropertyOp9
 70
     0
102
RTVSPropertyOp10
 70
     0
102
RTVSPropertyOp11
 70
     0
102
RTVSPropertyOp12
 70
     0
102
RTVSPropertyOp13
 70
     0
102
RTVSPropertyOp14
 70
     2
102
RTVSPropertyOp15
 70
     0
102
RTVSPropertyOp16
 70
     0
102
RTVSPropertyOp17
 70
     0
102
RTVSPropertyOp18
 70
     0
102
RTVSPropertyOp19
 70
     0
102
RTVSPropertyOp20
 70
     0
102
RTVSPropertyOp21
 70
     0
102
RTVSPropertyOp22
 70
     0
102
RTVSPropertyOp23
 70
     0
102
RTVSPropertyOp24
 70
     0
102
RTVSPropertyOp25
 70
     0
102
RTVSPropertyOp26
 70
     0
102
RTVSPropertyOp27
 70
     0
  0
XRECORD
  5
2C61
102
{ACAD_REACTORS
330
2C60
102
}
330
2C60
100
AcDbXrecord
280
     1
102
RTVSPropertyOp0
 70
     1
102
RTVSPropertyOp1
 70
     1
102
RTVSPropertyOp2
 70
     1
102
RTVSPropertyOp3
 70
     1
102
RTVSPropertyOp4
 70
     1
102
RTVSPropertyOp5
 70
     1
102
RTVSPropertyOp6
 70
     1
102
RTVSPropertyOp7
 70
     1
102
RTVSPropertyOp8
 70
     1
102
RTVSPropertyOp9
 70
     1
102
RTVSPropertyOp10
 70
     1
102
RTVSPropertyOp11
 70
     1
102
RTVSPropertyOp12
 70
     1
102
RTVSPropertyOp13
 70
     1
102
RTVSPropertyOp14
 70
     1
102
RTVSPropertyOp15
 70
     1
102
RTVSPropertyOp16
 70
     1
102
RTVSPropertyOp17
 70
     1
102
RTVSPropertyOp18
 70
     1
102
RTVSPropertyOp19
 70
     1
102
RTVSPropertyOp20
 70
     1
102
RTVSPropertyOp21
 70
     1
102
RTVSPropertyOp22
 70
     1
102
RTVSPropertyOp23
 70
     1
102
RTVSPropertyOp24
 70
     1
102
RTVSPropertyOp25
 70
     1
102
RTVSPropertyOp26
 70
     1
102
RTVSPropertyOp27
 70
     1
  0
XRECORD
  5
2C67
102
{ACAD_REACTORS
330
2C66
102
}
330
2C66
100
AcDbXrecord
280
     1
102
RTVSPropertyOp0
 70
     1
102
RTVSPropertyOp1
 70
     1
102
RTVSPropertyOp2
 70
     1
102
RTVSPropertyOp3
 70
     1
102
RTVSPropertyOp4
 70
     1
102
RTVSPropertyOp5
 70
     1
102
RTVSPropertyOp6
 70
     1
102
RTVSPropertyOp7
 70
     1
102
RTVSPropertyOp8
 70
     1
102
RTVSPropertyOp9
 70
     1
102
RTVSPropertyOp10
 70
     1
102
RTVSPropertyOp11
 70
     1
102
RTVSPropertyOp12
 70
     1
102
RTVSPropertyOp13
 70
     1
102
RTVSPropertyOp14
 70
     1
102
RTVSPropertyOp15
 70
     1
102
RTVSPropertyOp16
 70
     1
102
RTVSPropertyOp17
 70
     1
102
RTVSPropertyOp18
 70
     1
102
RTVSPropertyOp19
 70
     1
102
RTVSPropertyOp20
 70
     1
102
RTVSPropertyOp21
 70
     1
102
RTVSPropertyOp22
 70
     1
102
RTVSPropertyOp23
 70
     1
102
RTVSPropertyOp24
 70
     1
102
RTVSPropertyOp25
 70
     1
102
RTVSPropertyOp26
 70
     1
102
RTVSPropertyOp27
 70
     1
  0
DICTIONARY
  5
250F
102
{ACAD_REACTORS
330
250E
102
}
330
250E
100
AcDbDictionary
281
     1
  3
PH_GRPMEMBERS
350
2510
  0
PH_GROUP
  5
2511
102
{ACAD_REACTORS
330
250E
102
}
330
250E
  0
PH_GROUP
  5
2510
102
{ACAD_REACTORS
330
250F
102
}
330
250F
  0
ENDSEC
  0
EOF
