  0
SECTION
  2
HEADER
  9
$ACADVER
  1
AC1015
  9
$ACADMAINTVER
 70
    20
  9
$DWGCODEPAGE
  3
ANSI_1252
  9
$INSBASE
 10
0.0
 20
0.0
 30
0.0
  9
$EXTMIN
 10
0.5
 20
0.5
 30
0.0
  9
$EXTMAX
 10
296.5
 20
209.5
 30
0.0
  9
$LIMMIN
 10
0.0
 20
0.0
  9
$LIMMAX
 10
420.0
 20
297.0
  9
$ORTHOMODE
 70
     1
  9
$REGENMODE
 70
     1
  9
$FILLMODE
 70
     1
  9
$QTEXTMODE
 70
     0
  9
$MIRRTEXT
 70
     1
  9
$LTSCALE
 40
1.0
  9
$ATTMODE
 70
     1
  9
$TEXTSIZE
 40
2.5
  9
$TRACEWID
 40
1.0
  9
$TEXTSTYLE
  7
STANDARD
  9
$CLAYER
  8
0
  9
$CELTYPE
  6
ACAD_ISO05W100
  9
$CECOLOR
 62
     3
  9
$CELTSCALE
 40
1.0
  9
$DISPSILH
 70
     0
  9
$DIMSCALE
 40
1.0
  9
$DIMASZ
 40
2.5
  9
$DIMEXO
 40
0.625
  9
$DIMDLI
 40
3.75
  9
$DIMRND
 40
0.0
  9
$DIMDLE
 40
0.0
  9
$DIMEXE
 40
1.25
  9
$DIMTP
 40
0.0
  9
$DIMTM
 40
0.0
  9
$DIMTXT
 40
2.5
  9
$DIMCEN
 40
2.5
  9
$DIMTSZ
 40
0.0
  9
$DIMTOL
 70
     0
  9
$DIMLIM
 70
     0
  9
$DIMTIH
 70
     0
  9
$DIMTOH
 70
     0
  9
$DIMSE1
 70
     0
  9
$DIMSE2
 70
     0
  9
$DIMTAD
 70
     1
  9
$DIMZIN
 70
     0
  9
$DIMBLK
  1

  9
$DIMASO
 70
     1
  9
$DIMSHO
 70
     1
  9
$DIMPOST
  1

  9
$DIMAPOST
  1

  9
$DIMALT
 70
     0
  9
$DIMALTD
 70
     4
  9
$DIMALTF
 40
0.0394
  9
$DIMLFAC
 40
1.0
  9
$DIMTOFL
 70
     1
  9
$DIMTVP
 40
0.0
  9
$DIMTIX
 70
     0
  9
$DIMSOXD
 70
     0
  9
$DIMSAH
 70
     0
  9
$DIMBLK1
  1

  9
$DIMBLK2
  1

  9
$DIMSTYLE
  2
STANDARD
  9
$DIMCLRD
 70
     0
  9
$DIMCLRE
 70
     0
  9
$DIMCLRT
 70
     0
  9
$DIMTFAC
 40
1.0
  9
$DIMGAP
 40
0.625
  9
$DIMJUST
 70
     0
  9
$DIMSD1
 70
     0
  9
$DIMSD2
 70
     0
  9
$DIMTOLJ
 70
     1
  9
$DIMTZIN
 70
     0
  9
$DIMALTZ
 70
     0
  9
$DIMALTTZ
 70
     0
  9
$DIMUPT
 70
     0
  9
$DIMDEC
 70
     4
  9
$DIMTDEC
 70
     4
  9
$DIMALTU
 70
     8
  9
$DIMALTTD
 70
     4
  9
$DIMTXSTY
  7
STANDARD
  9
$DIMAUNIT
 70
     0
  9
$DIMADEC
 70
     0
  9
$DIMALTRND
 40
0.0
  9
$DIMAZIN
 70
     0
  9
$DIMDSEP
 70
    46
  9
$DIMATFIT
 70
     3
  9
$DIMFRAC
 70
     0
  9
$DIMLDRBLK
  1

  9
$DIMLUNIT
 70
     6
  9
$DIMLWD
 70
    -2
  9
$DIMLWE
 70
    -2
  9
$DIMTMOVE
 70
     0
  9
$LUNITS
 70
     2
  9
$LUPREC
 70
     4
  9
$SKETCHINC
 40
1.0
  9
$FILLETRAD
 40
0.0
  9
$AUNITS
 70
     0
  9
$AUPREC
 70
     0
  9
$MENU
  1
.
  9
$ELEVATION
 40
0.0
  9
$PELEVATION
 40
0.0
  9
$THICKNESS
 40
0.0
  9
$LIMCHECK
 70
     0
  9
$CHAMFERA
 40
10.0
  9
$CHAMFERB
 40
10.0
  9
$CHAMFERC
 40
20.0
  9
$CHAMFERD
 40
0.0
  9
$SKPOLY
 70
     0
  9
$TDCREATE
 40
2451306.623786458
  9
$TDUCREATE
 40
2451306.540453125
  9
$TDUPDATE
 40
2456784.486806053
  9
$TDUUPDATE
 40
2456784.403472720
  9
$TDINDWG
 40
0.0476432755
  9
$TDUSRTIMER
 40
0.0476432755
  9
$USRTIMER
 70
     1
  9
$ANGBASE
 50
0.0
  9
$ANGDIR
 70
     0
  9
$PDMODE
 70
    35
  9
$PDSIZE
 40
-2.0
  9
$PLINEWID
 40
0.0
  9
$SPLFRAME
 70
     0
  9
$SPLINETYPE
 70
     6
  9
$SPLINESEGS
 70
     8
  9
$HANDSEED
  5
100E
  9
$SURFTAB1
 70
     6
  9
$SURFTAB2
 70
     6
  9
$SURFTYPE
 70
     6
  9
$SURFU
 70
     6
  9
$SURFV
 70
     6
  9
$UCSBASE
  2

  9
$UCSNAME
  2

  9
$UCSORG
 10
0.0
 20
0.0
 30
0.0
  9
$UCSXDIR
 10
1.0
 20
0.0
 30
0.0
  9
$UCSYDIR
 10
0.0
 20
1.0
 30
0.0
  9
$UCSORTHOREF
  2

  9
$UCSORTHOVIEW
 70
     0
  9
$UCSORGTOP
 10
0.0
 20
0.0
 30
0.0
  9
$UCSORGBOTTOM
 10
0.0
 20
0.0
 30
0.0
  9
$UCSORGLEFT
 10
0.0
 20
0.0
 30
0.0
  9
$UCSORGRIGHT
 10
0.0
 20
0.0
 30
0.0
  9
$UCSORGFRONT
 10
0.0
 20
0.0
 30
0.0
  9
$UCSORGBACK
 10
0.0
 20
0.0
 30
0.0
  9
$PUCSBASE
  2

  9
$PUCSNAME
  2

  9
$PUCSORG
 10
0.0
 20
0.0
 30
0.0
  9
$PUCSXDIR
 10
1.0
 20
0.0
 30
0.0
  9
$PUCSYDIR
 10
0.0
 20
1.0
 30
0.0
  9
$PUCSORTHOREF
  2

  9
$PUCSORTHOVIEW
 70
     0
  9
$PUCSORGTOP
 10
0.0
 20
0.0
 30
0.0
  9
$PUCSORGBOTTOM
 10
0.0
 20
0.0
 30
0.0
  9
$PUCSORGLEFT
 10
0.0
 20
0.0
 30
0.0
  9
$PUCSORGRIGHT
 10
0.0
 20
0.0
 30
0.0
  9
$PUCSORGFRONT
 10
0.0
 20
0.0
 30
0.0
  9
$PUCSORGBACK
 10
0.0
 20
0.0
 30
0.0
  9
$USERI1
 70
     0
  9
$USERI2
 70
     0
  9
$USERI3
 70
     0
  9
$USERI4
 70
     0
  9
$USERI5
 70
     0
  9
$USERR1
 40
0.0
  9
$USERR2
 40
0.0
  9
$USERR3
 40
0.0
  9
$USERR4
 40
0.0
  9
$USERR5
 40
0.0
  9
$WORLDVIEW
 70
     1
  9
$SHADEDGE
 70
     3
  9
$SHADEDIF
 70
    70
  9
$TILEMODE
 70
     1
  9
$MAXACTVP
 70
    48
  9
$PINSBASE
 10
0.0
 20
0.0
 30
0.0
  9
$PLIMCHECK
 70
     0
  9
$PEXTMIN
 10
1.000000000000000E+20
 20
1.000000000000000E+20
 30
1.000000000000000E+20
  9
$PEXTMAX
 10
-1.000000000000000E+20
 20
-1.000000000000000E+20
 30
-1.000000000000000E+20
  9
$PLIMMIN
 10
0.0
 20
0.0
  9
$PLIMMAX
 10
420.0
 20
297.0
  9
$UNITMODE
 70
     0
  9
$VISRETAIN
 70
     1
  9
$PLINEGEN
 70
     0
  9
$PSLTSCALE
 70
     1
  9
$TREEDEPTH
 70
  3020
  9
$CMLSTYLE
  2
STANDARD
  9
$CMLJUST
 70
     0
  9
$CMLSCALE
 40
20.0
  9
$PROXYGRAPHICS
 70
     1
  9
$MEASUREMENT
 70
     1
  9
$CELWEIGHT
370
    70
  9
$ENDCAPS
280
     0
  9
$JOINSTYLE
280
     0
  9
$LWDISPLAY
290
     0
  9
$INSUNITS
 70
     0
  9
$HYPERLINKBASE
  1

  9
$STYLESHEET
  1
HP_Farbe_Dünn.ctb
  9
$XEDIT
290
     1
  9
$CEPSNTYPE
380
     0
  9
$PSTYLEMODE
290
     1
  9
$FINGERPRINTGUID
  2
{44980AD8-9D12-4814-B8D2-5EE0B6C818B3}
  9
$VERSIONGUID
  2
{8B974963-7B9E-4D6F-BE04-AAC7B343CCA7}
  9
$EXTNAMES
290
     1
  9
$PSVPSCALE
 40
0.0
  9
$OLESTARTUP
290
     0
  0
ENDSEC
  0
SECTION
  2
CLASSES
  0
CLASS
  1
PH_VARS
  2
PhoenixVars
  3
PHOENIX7010
 90
        0
280
     0
281
     0
  0
CLASS
  1
PH_GROUP
  2
PhGroup
  3
PHOENIX7010
 90
        0
280
     0
281
     0
  0
CLASS
  1
ACDBDICTIONARYWDFLT
  2
AcDbDictionaryWithDefault
  3
ObjectDBX Classes
 90
        0
280
     0
281
     0
  0
CLASS
  1
MATERIAL
  2
AcDbMaterial
  3
ObjectDBX Classes
 90
     1153
280
     0
281
     0
  0
CLASS
  1
VISUALSTYLE
  2
AcDbVisualStyle
  3
ObjectDBX Classes
 90
     4095
280
     0
281
     0
  0
CLASS
  1
TABLESTYLE
  2
AcDbTableStyle
  3
ObjectDBX Classes
 90
     4095
280
     0
281
     0
  0
CLASS
  1
SCALE
  2
AcDbScale
  3
ObjectDBX Classes
 90
     1153
280
     0
281
     0
  0
CLASS
  1
MLEADERSTYLE
  2
AcDbMLeaderStyle
  3
ACDB_MLEADERSTYLE_CLASS
 90
     4095
280
     0
281
     0
  0
CLASS
  1
CELLSTYLEMAP
  2
AcDbCellStyleMap
  3
ObjectDBX Classes
 90
     1152
280
     0
281
     0
  0
CLASS
  1
DICTIONARYVAR
  2
AcDbDictionaryVar
  3
ObjectDBX Classes
 90
        0
280
     0
281
     0
  0
CLASS
  1
AEC_REFEDIT_STATUS_TRACKER
  2
AecDbRefEditStatusTracker
  3
AecArchBase60|Product Desc: Autodesk Architectural Desktop 2007 |Company: Autodesk,Inc. |WEB Address: www.autodesk.com
 90
    32897
280
     0
281
     0
  0
CLASS
  1
NPOCOLLECTION
  2
AcDbImpNonPersistentObjectsCollection
  3
ObjectDBX Classes
 90
    33921
280
     0
281
     0
  0
CLASS
  1
PDFDEFINITION
  2
AcDbPdfDefinition
  3
ObjectDBX Classes
 90
     1153
280
     0
281
     0
  0
CLASS
  1
PDFUNDERLAY
  2
AcDbPdfReference
  3
ObjectDBX Classes
 90
     1153
280
     0
281
     1
  0
CLASS
  1
ACDBPLACEHOLDER
  2
AcDbPlaceHolder
  3
ObjectDBX Classes
 90
        0
280
     0
281
     0
  0
CLASS
  1
LAYOUT
  2
AcDbLayout
  3
ObjectDBX Classes
 90
        0
280
     0
281
     0
  0
ENDSEC
  0
SECTION
  2
TABLES
  0
TABLE
  2
VPORT
  5
8
102
{ACAD_XDICTIONARY
360
C65
102
}
330
0
100
AcDbSymbolTable
 70
     1
  0
VPORT
  5
63D
330
8
100
AcDbSymbolTableRecord
100
AcDbViewportTableRecord
  2
*ACTIVE
 70
     0
 10
0.0
 20
0.0
 11
1.0
 21
1.0
 12
222.5441752128724
 22
105.0054709167516
 13
0.0
 23
0.0
 14
10.0
 24
10.0
 15
10.0
 25
10.0
 16
0.0
 26
0.0
 36
1.0
 17
0.0
 27
0.0
 37
0.0
 40
210.5456726535798
 41
1.746234067207415
 42
50.0
 43
0.0
 44
0.0
 50
0.0
 51
0.0
 71
     0
 72
   100
 73
     1
 74
     0
 75
     0
 76
     0
 77
     0
 78
     0
281
     0
 65
     1
110
0.0
120
0.0
130
0.0
111
1.0
121
0.0
131
0.0
112
0.0
122
1.0
132
0.0
 79
     0
146
0.0
  0
ENDTAB
  0
TABLE
  2
LTYPE
  5
5
330
0
100
AcDbSymbolTable
 70
     4
  0
LTYPE
  5
12
330
5
100
AcDbSymbolTableRecord
100
AcDbLinetypeTableRecord
  2
BYBLOCK
 70
     0
  3

 72
    65
 73
     0
 40
0.0
  0
LTYPE
  5
13
330
5
100
AcDbSymbolTableRecord
100
AcDbLinetypeTableRecord
  2
BYLAYER
 70
     0
  3

 72
    65
 73
     0
 40
0.0
  0
LTYPE
  5
14
330
5
100
AcDbSymbolTableRecord
100
AcDbLinetypeTableRecord
  2
CONTINUOUS
 70
     0
  3
Solid line
 72
    65
 73
     0
 40
0.0
  0
LTYPE
  5
28E
330
5
100
AcDbSymbolTableRecord
100
AcDbLinetypeTableRecord
  2
ACAD_ISO04W100
 70
     0
  3
____ . ____ . ____ . ____ . ____ . ____ . ____ 
 72
    65
 73
     4
 40
30.5
 49
24.0
 74
     0
 49
-3.0
 74
     0
 49
0.5
 74
     0
 49
-3.0
 74
     0
  0
LTYPE
  5
4BA
330
5
100
AcDbSymbolTableRecord
100
AcDbLinetypeTableRecord
  2
ACAD_ISO02W100
 70
     0
  3
ISO Strichlinie __ __ __ __ __ __ __ __ __ __ _
 72
    65
 73
     2
 40
15.0
 49
12.0
 74
     0
 49
-3.0
 74
     0
  0
LTYPE
  5
BD6
330
5
100
AcDbSymbolTableRecord
100
AcDbLinetypeTableRecord
  2
ACAD_ISO05W100
 70
     0
  3
ISO Lang gestrichelt doppelpunktiert ____ .. __
 72
    65
 73
     6
 40
33.0
 49
24.0
 74
     0
 49
-3.0
 74
     0
 49
0.0
 74
     0
 49
-3.0
 74
     0
 49
0.0
 74
     0
 49
-3.0
 74
     0
  0
ENDTAB
  0
TABLE
  2
LAYER
  5
2
102
{ACAD_XDICTIONARY
360
9BF
102
}
330
0
100
AcDbSymbolTable
 70
     5
  0
LAYER
  5
E
102
{ACAD_XDICTIONARY
360
68B
102
}
330
2
100
AcDbSymbolTableRecord
100
AcDbLayerTableRecord
  2
0
 70
     0
 62
     7
  6
CONTINUOUS
370
    -3
390
640
  0
LAYER
  5
21
102
{ACAD_XDICTIONARY
360
68D
102
}
330
2
100
AcDbSymbolTableRecord
100
AcDbLayerTableRecord
  2
BZA45776
 70
     0
 62
     7
  6
CONTINUOUS
370
    -3
390
640
  0
LAYER
  5
38
102
{ACAD_XDICTIONARY
360
68F
102
}
330
2
100
AcDbSymbolTableRecord
100
AcDbLayerTableRecord
  2
30
 70
     0
 62
     7
  6
CONTINUOUS
370
    -3
390
640
  0
LAYER
  5
1F0
102
{ACAD_XDICTIONARY
360
691
102
}
330
2
100
AcDbSymbolTableRecord
100
AcDbLayerTableRecord
  2
PH_HILFSELEMENTE
 70
     0
 62
    -7
  6
CONTINUOUS
370
    -3
390
640
  0
LAYER
  5
28F
330
2
100
AcDbSymbolTableRecord
100
AcDbLayerTableRecord
  2
DEFPOINTS
 70
     0
 62
     7
  6
CONTINUOUS
290
     0
370
    -3
390
640
  0
ENDTAB
  0
TABLE
  2
STYLE
  5
3
330
0
100
AcDbSymbolTable
 70
     1
  0
STYLE
  5
F
330
3
100
AcDbSymbolTableRecord
100
AcDbTextStyleTableRecord
  2
STANDARD
 70
     0
 40
0.0
 41
1.0
 50
0.0
 71
     0
 42
2.5
  3
isocp.shx
  4

  0
ENDTAB
  0
TABLE
  2
VIEW
  5
6
330
0
100
AcDbSymbolTable
 70
     0
  0
ENDTAB
  0
TABLE
  2
UCS
  5
7
330
0
100
AcDbSymbolTable
 70
     0
  0
ENDTAB
  0
TABLE
  2
APPID
  5
9
330
0
100
AcDbSymbolTable
 70
     7
  0
APPID
  5
10
330
9
100
AcDbSymbolTableRecord
100
AcDbRegAppTableRecord
  2
ACAD
 70
     0
  0
APPID
  5
1D2
330
9
100
AcDbSymbolTableRecord
100
AcDbRegAppTableRecord
  2
PHOENIX7010
 70
     0
  0
APPID
  5
9BE
330
9
100
AcDbSymbolTableRecord
100
AcDbRegAppTableRecord
  2
ACAD_PSEXT
 70
     0
  0
APPID
  5
A0E
330
9
100
AcDbSymbolTableRecord
100
AcDbRegAppTableRecord
  2
ACAD_EXEMPT_FROM_CAD_STANDARDS
 70
     0
  0
APPID
  5
BD5
330
9
100
AcDbSymbolTableRecord
100
AcDbRegAppTableRecord
  2
AdeskUnderlayLayerOverrideData
 70
     0
  0
APPID
  5
C91
330
9
100
AcDbSymbolTableRecord
100
AcDbRegAppTableRecord
  2
ACAD_MLEADERVER
 70
     0
  0
APPID
  5
E43
330
9
100
AcDbSymbolTableRecord
100
AcDbRegAppTableRecord
  2
DCO15
 70
     0
  0
ENDTAB
  0
TABLE
  2
DIMSTYLE
  5
A
330
0
100
AcDbSymbolTable
 70
     4
100
AcDbDimStyleTable
 71
     1
340
1D
  0
DIMSTYLE
105
1D
330
A
100
AcDbSymbolTableRecord
100
AcDbDimStyleTableRecord
  2
STANDARD
 70
     0
340
F
  0
DIMSTYLE
105
1D9
330
A
100
AcDbSymbolTableRecord
100
AcDbDimStyleTableRecord
  2
PHOENIX
 70
     0
  4
"
 41
3.72
 42
0.0
 43
7.0
 44
1.5
 73
     0
 74
     0
 77
     1
 78
     8
140
3.5
141
0.0
143
0.0393700787401575
146
0.6666666666666666
147
2.0
172
     1
173
     1
176
     1
177
     1
178
     5
271
     2
272
     2
284
     8
288
     1
289
     0
340
F
341
1D3
343
1D3
344
1D3
  0
DIMSTYLE
105
1DA
330
A
100
AcDbSymbolTableRecord
100
AcDbDimStyleTableRecord
  2
PHOENIX$4
 70
     0
  4
"
 41
3.72
 42
0.0
 43
7.0
 44
1.5
 73
     0
 74
     0
 77
     1
 78
     8
140
3.5
141
0.0
143
0.0393700787401575
146
0.6666666666666666
147
2.0
173
     1
176
     1
177
     1
178
     5
271
     2
272
     2
281
     1
284
     8
288
     1
289
     0
340
F
341
1D3
343
1D3
344
1D3
  0
DIMSTYLE
105
6D0
330
A
100
AcDbSymbolTableRecord
100
AcDbDimStyleTableRecord
  2
ISO-25
 70
     0
 41
2.5
 42
0.625
 43
3.75
 44
1.25
 73
     0
 74
     0
 77
     1
 78
     8
140
2.5
141
2.5
143
0.03937007874016
147
0.625
171
     3
172
     1
271
     2
272
     2
274
     3
278
    44
283
     0
284
     8
340
F
  0
ENDTAB
  0
TABLE
  2
BLOCK_RECORD
  5
1
330
0
100
AcDbSymbolTable
 70
     2
  0
BLOCK_RECORD
  5
18
330
1
100
AcDbSymbolTableRecord
100
AcDbBlockTableRecord
  2
*MODEL_SPACE
340
687
  0
BLOCK_RECORD
  5
15
330
1
100
AcDbSymbolTableRecord
100
AcDbBlockTableRecord
  2
*PAPER_SPACE
340
688
  0
BLOCK_RECORD
  5
1D3
330
1
100
AcDbSymbolTableRecord
100
AcDbBlockTableRecord
  2
_OPEN15
340
0
  0
BLOCK_RECORD
  5
1F1
330
1
100
AcDbSymbolTableRecord
100
AcDbBlockTableRecord
  2
PH_GRPBLK
340
0
102
{BLKREFS
331
9CB
331
A03
331
9C8
331
BCD
102
}
  0
ENDTAB
  0
ENDSEC
  0
SECTION
  2
BLOCKS
  0
BLOCK
  5
19
330
18
100
AcDbEntity
  8
0
100
AcDbBlockBegin
  2
*MODEL_SPACE
 70
     0
 10
0.0
 20
0.0
 30
0.0
  3
*MODEL_SPACE
  1

  0
ENDBLK
  5
1A
330
18
100
AcDbEntity
  8
0
100
AcDbBlockEnd
  0
BLOCK
  5
16
330
15
100
AcDbEntity
 67
     1
  8
0
100
AcDbBlockBegin
  2
*PAPER_SPACE
 70
     0
 10
0.0
 20
0.0
 30
0.0
  3
*PAPER_SPACE
  1

  0
ENDBLK
  5
17
330
15
100
AcDbEntity
 67
     1
  8
0
100
AcDbBlockEnd
  0
BLOCK
  5
1D7
330
1D3
100
AcDbEntity
  8
0
100
AcDbBlockBegin
  2
_OPEN15
 70
     0
 10
1.0
 20
0.0
 30
0.0
  3
_OPEN15
  1

  0
LINE
  5
1D4
330
1D3
100
AcDbEntity
  8
0
  6
ByBlock
 62
     0
100
AcDbLine
 10
0.0
 20
0.0
 30
0.0
 11
1.0
 21
0.0
 31
0.0
  0
LINE
  5
1D5
330
1D3
100
AcDbEntity
  8
0
  6
ByBlock
 62
     0
100
AcDbLine
 10
1.0
 20
0.0
 30
0.0
 11
0.0
 21
0.1316524975873958
 31
0.0
  0
LINE
  5
1D6
330
1D3
100
AcDbEntity
  8
0
  6
ByBlock
 62
     0
100
AcDbLine
 10
1.0
 20
0.0
 30
0.0
 11
0.0
 21
-0.1316524975873958
 31
0.0
  0
ENDBLK
  5
1D8
330
1D3
100
AcDbEntity
  8
0
100
AcDbBlockEnd
  0
BLOCK
  5
1F3
330
1F1
100
AcDbEntity
  8
0
 62
     7
100
AcDbBlockBegin
  2
PH_GRPBLK
 70
     0
 10
0.0
 20
0.0
 30
0.0
  3
PH_GRPBLK
  1

  0
POINT
  5
1F2
330
1F1
100
AcDbEntity
  8
DEFPOINTS
  6
Continuous
 62
     0
100
AcDbPoint
 10
0.0
 20
0.0
 30
0.0
  0
ENDBLK
  5
1F4
330
1F1
100
AcDbEntity
  8
0
 62
     7
100
AcDbBlockEnd
  0
ENDSEC
  0
SECTION
  2
ENTITIES
  0
LINE
  5
4E1
330
18
100
AcDbEntity
  8
0
  6
ACAD_ISO04W100
 62
     1
100
AcDbLine
 10
61.6393851072581
 20
95.89245072369488
 30
0.0
 11
61.6393851072581
 21
184.4174446201792
 31
0.0
1001
PHOENIX7010
1002
{
1070
    41
1040
2.0
1002
}
  0
LINE
  5
4E2
330
18
100
AcDbEntity
  8
0
  6
Continuous
 62
     1
100
AcDbLine
 10
61.6393851072581
 20
106.81741562848
 30
0.0
 11
67.47546756575417
 21
90.89245072369491
 31
0.0
1001
PHOENIX7010
1002
{
1070
    41
1040
2.0
1002
}
  0
LINE
  5
4E3
330
18
100
AcDbEntity
  8
0
  6
Continuous
 62
     1
100
AcDbLine
 10
67.47546756575417
 20
90.89245072369491
 30
0.0
 11
73.12665927717995
 21
90.89245072369491
 31
0.0
1001
PHOENIX7010
1002
{
1070
    41
1040
2.0
1002
}
  0
TEXT
  5
4E4
330
18
100
AcDbEntity
  8
0
 62
     5
100
AcDbText
 10
68.0811880857737
 20
91.6179145908824
 30
0.0
 40
2.5
  1
ø 6
100
AcDbText
1001
PHOENIX7010
1002
{
1070
    41
1040
2.0
1002
}
  0
LINE
  5
4E5
330
18
100
AcDbEntity
  8
0
  6
Continuous
 62
     1
100
AcDbLine
 10
113.138466802257
 20
114.7299522495738
 30
0.0
 11
100.7928514152941
 21
84.28390732769882
 31
0.0
1001
PHOENIX7010
1002
{
1070
    41
1040
2.0
1002
}
  0
LINE
  5
4E6
330
18
100
AcDbEntity
  8
0
  6
Continuous
 62
     1
100
AcDbLine
 10
100.7928514152941
 20
84.28390732769882
 30
0.0
 11
100.7928514152941
 21
78.93119660382186
 31
0.0
1001
PHOENIX7010
1002
{
1070
    41
1040
2.0
1002
}
  0
TEXT
  5
4E7
330
18
100
AcDbEntity
  8
0
 62
     5
100
AcDbText
 10
104.218544927257
 20
79.66396943097027
 30
0.0
 40
2.5
  1
ø 10.4 x 7.5
100
AcDbText
1001
PHOENIX7010
1002
{
1070
    41
1040
2.0
1002
}
  0
LINE
  5
4E8
330
18
100
AcDbEntity
  8
0
  6
Continuous
 62
     1
100
AcDbLine
 10
100.7928514152941
 20
78.93119660382186
 30
0.0
 11
120.2903680473742
 21
78.93119660382186
 31
0.0
1001
PHOENIX7010
1002
{
1070
    41
1040
2.0
1002
}
  0
LINE
  5
4E9
330
18
100
AcDbEntity
  8
0
  6
Continuous
 62
     1
100
AcDbLine
 10
55.13937747786354
 20
90.89245072369491
 30
0.0
 11
61.6393851072581
 21
90.89245072369491
 31
0.0
1001
PHOENIX7010
1002
{
1070
    41
1040
2.0
1002
}
  0
LINE
  5
4EA
330
18
100
AcDbEntity
  8
0
  6
Continuous
 62
     1
100
AcDbLine
 10
55.13937747786354
 20
95.89245072369488
 30
0.0
 11
55.13937747786354
 21
89.89245072369488
 31
0.0
1001
PHOENIX7010
1002
{
1070
    41
1040
2.0
1002
}
  0
LINE
  5
4EB
330
18
100
AcDbEntity
  8
0
  6
Continuous
 62
     1
100
AcDbLine
 10
61.6393851072581
 20
95.89245072369488
 30
0.0
 11
61.6393851072581
 21
89.89245072369488
 31
0.0
1001
PHOENIX7010
1002
{
1070
    41
1040
2.0
1002
}
  0
LINE
  5
4EC
330
18
100
AcDbEntity
  8
0
  6
Continuous
 62
     1
100
AcDbLine
 10
55.13937747786354
 20
90.89245072369491
 30
0.0
 11
56.87440479109596
 21
91.12087098126323
 31
0.0
1001
PHOENIX7010
1002
{
1070
    41
1040
2.0
1002
}
  0
LINE
  5
4ED
330
18
100
AcDbEntity
  8
0
  6
Continuous
 62
     1
100
AcDbLine
 10
55.13937747786354
 20
90.89245072369491
 30
0.0
 11
56.87440479109596
 21
90.66403046612652
 31
0.0
1001
PHOENIX7010
1002
{
1070
    41
1040
2.0
1002
}
  0
LINE
  5
4EE
330
18
100
AcDbEntity
  8
0
  6
Continuous
 62
     1
100
AcDbLine
 10
61.6393851072581
 20
90.89245072369491
 30
0.0
 11
59.90435779402568
 21
91.12087098126323
 31
0.0
1001
PHOENIX7010
1002
{
1070
    41
1040
2.0
1002
}
  0
LINE
  5
4EF
330
18
100
AcDbEntity
  8
0
  6
Continuous
 62
     1
100
AcDbLine
 10
61.6393851072581
 20
90.89245072369491
 30
0.0
 11
59.90435779402568
 21
90.66403046612652
 31
0.0
1001
PHOENIX7010
1002
{
1070
    41
1040
2.0
1002
}
  0
TEXT
  5
4F0
330
18
100
AcDbEntity
  8
0
 62
     5
100
AcDbText
 10
55.88938129256082
 20
91.39245072369488
 30
0.0
 40
2.5
  1
 13 
 72
     1
 11
58.38938129256082
 21
91.39245072369488
 31
0.0
100
AcDbText
1001
PHOENIX7010
1002
{
1070
    41
1040
2.0
1002
}
  0
LINE
  5
4F1
330
18
100
AcDbEntity
  8
0
  6
Continuous
 62
     1
100
AcDbLine
 10
48.63937747786358
 20
95.89245072369488
 30
0.0
 11
48.63937747786358
 21
106.81741562848
 31
0.0
1001
PHOENIX7010
1002
{
1070
    41
1040
2.0
1002
}
  0
LINE
  5
4F2
330
18
100
AcDbEntity
  8
0
  6
Continuous
 62
     1
100
AcDbLine
 10
53.63937747786355
 20
95.89245072369488
 30
0.0
 11
47.63937747786354
 21
95.89245072369488
 31
0.0
1001
PHOENIX7010
1002
{
1070
    41
1040
2.0
1002
}
  0
LINE
  5
4F3
330
18
100
AcDbEntity
  8
0
  6
Continuous
 62
     1
100
AcDbLine
 10
61.6393851072581
 20
106.81741562848
 30
0.0
 11
47.63937747786354
 21
106.81741562848
 31
0.0
1001
PHOENIX7010
1002
{
1070
    41
1040
2.0
1002
}
  0
LINE
  5
4F4
330
18
100
AcDbEntity
  8
0
  6
Continuous
 62
     1
100
AcDbLine
 10
48.63937747786358
 20
95.89245072369488
 30
0.0
 11
48.41095722029518
 21
97.62747803692731
 31
0.0
1001
PHOENIX7010
1002
{
1070
    41
1040
2.0
1002
}
  0
LINE
  5
4F5
330
18
100
AcDbEntity
  8
0
  6
Continuous
 62
     1
100
AcDbLine
 10
48.63937747786358
 20
95.89245072369488
 30
0.0
 11
48.86779773543191
 21
97.62747803692731
 31
0.0
1001
PHOENIX7010
1002
{
1070
    41
1040
2.0
1002
}
  0
LINE
  5
4F6
330
18
100
AcDbEntity
  8
0
  6
Continuous
 62
     1
100
AcDbLine
 10
48.63937747786358
 20
106.81741562848
 30
0.0
 11
48.41095722029518
 21
105.0823845005503
 31
0.0
1001
PHOENIX7010
1002
{
1070
    41
1040
2.0
1002
}
  0
LINE
  5
4F7
330
18
100
AcDbEntity
  8
0
  6
Continuous
 62
     1
100
AcDbLine
 10
48.63937747786358
 20
106.81741562848
 30
0.0
 11
48.86779773543191
 21
105.0823845005503
 31
0.0
1001
PHOENIX7010
1002
{
1070
    41
1040
2.0
1002
}
  0
TEXT
  5
4F8
330
18
100
AcDbEntity
  8
0
 62
     5
100
AcDbText
 10
48.13937747786354
 20
98.63667530207171
 30
0.0
 40
2.5
  1
21.8
 50
90.0
 72
     1
 11
48.13937747786354
 21
101.3549331760874
 31
0.0
100
AcDbText
1001
PHOENIX7010
1002
{
1070
    41
1040
2.0
1002
}
  0
LINE
  5
4F9
330
18
100
AcDbEntity
  8
0
  6
Continuous
 62
     1
100
AcDbLine
 10
48.63937557051491
 20
106.81741562848
 30
0.0
 11
48.63937557051491
 21
129.0424522495738
 31
0.0
1001
PHOENIX7010
1002
{
1070
    41
1040
2.0
1002
}
  0
LINE
  5
4FA
330
18
100
AcDbEntity
  8
0
  6
Continuous
 62
     1
100
AcDbLine
 10
61.63937747786355
 20
129.0424522495738
 30
0.0
 11
47.63937747786354
 21
129.0424522495738
 31
0.0
1001
PHOENIX7010
1002
{
1070
    41
1040
2.0
1002
}
  0
LINE
  5
4FB
330
18
100
AcDbEntity
  8
0
  6
Continuous
 62
     1
100
AcDbLine
 10
48.63937557051491
 20
106.81741562848
 30
0.0
 11
48.41095531294655
 21
108.5524467564097
 31
0.0
1001
PHOENIX7010
1002
{
1070
    41
1040
2.0
1002
}
  0
LINE
  5
4FC
330
18
100
AcDbEntity
  8
0
  6
Continuous
 62
     1
100
AcDbLine
 10
48.63937557051491
 20
106.81741562848
 30
0.0
 11
48.8677958280833
 21
108.5524467564097
 31
0.0
1001
PHOENIX7010
1002
{
1070
    41
1040
2.0
1002
}
  0
LINE
  5
4FD
330
18
100
AcDbEntity
  8
0
  6
Continuous
 62
     1
100
AcDbLine
 10
48.63937557051491
 20
129.0424522495738
 30
0.0
 11
48.41095531294655
 21
127.3074211216441
 31
0.0
1001
PHOENIX7010
1002
{
1070
    41
1040
2.0
1002
}
  0
LINE
  5
4FE
330
18
100
AcDbEntity
  8
0
  6
Continuous
 62
     1
100
AcDbLine
 10
48.63937557051491
 20
129.0424522495738
 30
0.0
 11
48.8677958280833
 21
127.3074211216441
 31
0.0
1001
PHOENIX7010
1002
{
1070
    41
1040
2.0
1002
}
  0
TEXT
  5
4FF
330
18
100
AcDbEntity
  8
0
 62
     5
100
AcDbText
 10
48.13937557051492
 20
113.6281572437302
 30
0.0
 40
2.5
  1
44.45
 50
90.0
 72
     1
 11
48.13937557051492
 21
117.9299339390269
 31
0.0
100
AcDbText
1001
PHOENIX7010
1002
{
1070
    41
1040
2.0
1002
}
  0
LINE
  5
500
330
18
100
AcDbEntity
  8
0
  6
Continuous
 62
     1
100
AcDbLine
 10
43.63937557051491
 20
106.81741562848
 30
0.0
 11
43.63937557051491
 21
151.2674507236949
 31
0.0
1001
PHOENIX7010
1002
{
1070
    41
1040
2.0
1002
}
  0
LINE
  5
501
330
18
100
AcDbEntity
  8
0
  6
Continuous
 62
     1
100
AcDbLine
 10
48.63937557051491
 20
106.81741562848
 30
0.0
 11
42.63937557051491
 21
106.81741562848
 31
0.0
1001
PHOENIX7010
1002
{
1070
    41
1040
2.0
1002
}
  0
LINE
  5
502
330
18
100
AcDbEntity
  8
0
  6
Continuous
 62
     1
100
AcDbLine
 10
61.63937747786355
 20
151.2674507236949
 30
0.0
 11
42.63937747786357
 21
151.2674507236949
 31
0.0
1001
PHOENIX7010
1002
{
1070
    41
1040
2.0
1002
}
  0
LINE
  5
503
330
18
100
AcDbEntity
  8
0
  6
Continuous
 62
     1
100
AcDbLine
 10
43.63937557051491
 20
106.81741562848
 30
0.0
 11
43.41095531294658
 21
108.5524467564097
 31
0.0
1001
PHOENIX7010
1002
{
1070
    41
1040
2.0
1002
}
  0
LINE
  5
504
330
18
100
AcDbEntity
  8
0
  6
Continuous
 62
     1
100
AcDbLine
 10
43.63937557051491
 20
106.81741562848
 30
0.0
 11
43.86779582808327
 21
108.5524467564097
 31
0.0
1001
PHOENIX7010
1002
{
1070
    41
1040
2.0
1002
}
  0
LINE
  5
505
330
18
100
AcDbEntity
  8
0
  6
Continuous
 62
     1
100
AcDbLine
 10
43.63937557051491
 20
151.2674507236949
 30
0.0
 11
43.41095531294658
 21
149.5324195957652
 31
0.0
1001
PHOENIX7010
1002
{
1070
    41
1040
2.0
1002
}
  0
LINE
  5
506
330
18
100
AcDbEntity
  8
0
  6
Continuous
 62
     1
100
AcDbLine
 10
43.63937557051491
 20
151.2674507236949
 30
0.0
 11
43.86779582808327
 21
149.5324195957652
 31
0.0
1001
PHOENIX7010
1002
{
1070
    41
1040
2.0
1002
}
  0
TEXT
  5
507
330
18
100
AcDbEntity
  8
0
 62
     5
100
AcDbText
 10
43.13937557051494
 20
121.9906526660936
 30
0.0
 40
2.5
  1
n x 44.45
 50
90.0
 72
     1
 11
43.13937557051494
 21
129.0424293613902
 31
0.0
100
AcDbText
1001
PHOENIX7010
1002
{
1070
    41
1040
2.0
1002
}
  0
LINE
  5
508
330
18
100
AcDbEntity
  8
0
  6
Continuous
 62
     7
100
AcDbLine
 10
72.28937900374245
 20
57.38818928057776
 30
0.0
 11
71.03937518904519
 21
58.6381911879264
 31
0.0
1001
PHOENIX7010
1002
{
1070
    41
1040
2.0
1002
}
  0
LINE
  5
509
330
18
100
AcDbEntity
  8
0
  6
Continuous
 62
     7
100
AcDbLine
 10
55.13937747786354
 20
69.08818813616858
 30
0.0
 11
53.63937747786355
 21
69.08818813616858
 31
0.0
1001
PHOENIX7010
1002
{
1070
    41
1040
2.0
1002
}
  0
ARC
  5
50A
330
18
100
AcDbEntity
  8
0
  6
Continuous
 62
     7
100
AcDbCircle
 10
56.63937747786355
 20
60.13819118792639
 30
0.0
 40
1.5
100
AcDbArc
 50
180.0
 51
270.0
1001
PHOENIX7010
1002
{
1070
    41
1040
2.0
1002
}
  0
LINE
  5
50B
330
18
100
AcDbEntity
  8
0
  6
Continuous
 62
     7
100
AcDbLine
 10
55.13937747786354
 20
69.08818813616858
 30
0.0
 11
55.13937747786354
 21
60.13818737322913
 31
0.0
1001
PHOENIX7010
1002
{
1070
    41
1040
2.0
1002
}
  0
LINE
  5
50C
330
18
100
AcDbEntity
  8
0
  6
Continuous
 62
     7
100
AcDbLine
 10
56.63937747786355
 20
58.6381911879264
 30
0.0
 11
71.03937518904519
 21
58.6381911879264
 31
0.0
1001
PHOENIX7010
1002
{
1070
    41
1040
2.0
1002
}
  0
LINE
  5
50D
330
18
100
AcDbEntity
  8
0
  6
Continuous
 62
     7
100
AcDbLine
 10
53.63937747786355
 20
57.38818928057776
 30
0.0
 11
72.28937900374245
 21
57.38818928057776
 31
0.0
1001
PHOENIX7010
1002
{
1070
    41
1040
2.0
1002
}
  0
LINE
  5
50E
330
18
100
AcDbEntity
  8
0
  6
Continuous
 62
     7
100
AcDbLine
 10
53.63937747786355
 20
57.38818928057776
 30
0.0
 11
53.63937747786355
 21
69.08818813616858
 31
0.0
1001
PHOENIX7010
1002
{
1070
    41
1040
2.0
1002
}
  0
LINE
  5
50F
330
18
100
AcDbEntity
  8
0
  6
Continuous
 62
     1
100
AcDbLine
 10
72.28937900374245
 20
57.38818928057776
 30
0.0
 11
78.28937900374246
 21
57.38818928057776
 31
0.0
1001
PHOENIX7010
1002
{
1070
    41
1040
2.0
1002
}
  0
LINE
  5
510
330
18
100
AcDbEntity
  8
0
  6
Continuous
 62
     1
100
AcDbLine
 10
71.03937518904519
 20
58.6381911879264
 30
0.0
 11
78.28937900374246
 21
58.6381911879264
 31
0.0
1001
PHOENIX7010
1002
{
1070
    41
1040
2.0
1002
}
  0
LINE
  5
511
330
18
100
AcDbEntity
  8
0
  6
Continuous
 62
     1
100
AcDbLine
 10
77.28937900374245
 20
57.38818928057776
 30
0.0
 11
77.06095874617409
 21
55.65316196734534
 31
0.0
1001
PHOENIX7010
1002
{
1070
    41
1040
2.0
1002
}
  0
LINE
  5
512
330
18
100
AcDbEntity
  8
0
  6
Continuous
 62
     1
100
AcDbLine
 10
77.28937900374245
 20
57.38818928057776
 30
0.0
 11
77.51779926131084
 21
55.65316196734534
 31
0.0
1001
PHOENIX7010
1002
{
1070
    41
1040
2.0
1002
}
  0
LINE
  5
513
330
18
100
AcDbEntity
  8
0
  6
Continuous
 62
     1
100
AcDbLine
 10
77.28937900374245
 20
58.6381911879264
 30
0.0
 11
77.06095874617409
 21
60.37321850115882
 31
0.0
1001
PHOENIX7010
1002
{
1070
    41
1040
2.0
1002
}
  0
LINE
  5
514
330
18
100
AcDbEntity
  8
0
  6
Continuous
 62
     1
100
AcDbLine
 10
77.28937900374245
 20
58.6381911879264
 30
0.0
 11
77.51779926131084
 21
60.37321850115882
 31
0.0
1001
PHOENIX7010
1002
{
1070
    41
1040
2.0
1002
}
  0
TEXT
  5
515
330
18
100
AcDbEntity
  8
0
 62
     5
100
AcDbText
 10
76.78937900374245
 20
61.1381911879264
 30
0.0
 40
2.5
  1
2.5
 50
90.0
100
AcDbText
1001
PHOENIX7010
1002
{
1070
    41
1040
2.0
1002
}
  0
LINE
  5
516
330
18
100
AcDbEntity
  8
0
  6
Continuous
 62
     1
100
AcDbLine
 10
77.28937900374245
 20
53.88818928057776
 30
0.0
 11
77.28937900374245
 21
65.56745144183264
 31
0.0
1001
PHOENIX7010
1002
{
1070
    41
1040
2.0
1002
}
  0
LINE
  5
517
330
18
100
AcDbEntity
  8
0
  6
Continuous
 62
     1
100
AcDbLine
 10
108.7384729057726
 20
95.89245072369488
 30
0.0
 11
108.7384729057726
 21
89.89245072369488
 31
0.0
1001
PHOENIX7010
1002
{
1070
    41
1040
2.0
1002
}
  0
LINE
  5
518
330
18
100
AcDbEntity
  8
0
  6
Continuous
 62
     1
100
AcDbLine
 10
113.1384744316515
 20
114.7299522495738
 30
0.0
 11
113.1384744316515
 21
89.89245072369488
 31
0.0
1001
PHOENIX7010
1002
{
1070
    41
1040
2.0
1002
}
  0
LINE
  5
519
330
18
100
AcDbEntity
  8
0
  6
Continuous
 62
     1
100
AcDbLine
 10
108.7384729057726
 20
90.89245072369491
 30
0.0
 11
107.003441777843
 21
91.12087098126323
 31
0.0
1001
PHOENIX7010
1002
{
1070
    41
1040
2.0
1002
}
  0
LINE
  5
51A
330
18
100
AcDbEntity
  8
0
  6
Continuous
 62
     1
100
AcDbLine
 10
108.7384729057726
 20
90.89245072369491
 30
0.0
 11
107.003441777843
 21
90.66403046612652
 31
0.0
1001
PHOENIX7010
1002
{
1070
    41
1040
2.0
1002
}
  0
LINE
  5
51B
330
18
100
AcDbEntity
  8
0
  6
Continuous
 62
     1
100
AcDbLine
 10
113.1384744316515
 20
90.89245072369491
 30
0.0
 11
114.8735055595812
 21
91.12087098126323
 31
0.0
1001
PHOENIX7010
1002
{
1070
    41
1040
2.0
1002
}
  0
LINE
  5
51C
330
18
100
AcDbEntity
  8
0
  6
Continuous
 62
     1
100
AcDbLine
 10
113.1384744316515
 20
90.89245072369491
 30
0.0
 11
114.8735055595812
 21
90.66403046612652
 31
0.0
1001
PHOENIX7010
1002
{
1070
    41
1040
2.0
1002
}
  0
TEXT
  5
51D
330
18
100
AcDbEntity
  8
0
 62
     5
100
AcDbText
 10
115.6384744316515
 20
91.39245072369488
 30
0.0
 40
2.5
  1
8.8
100
AcDbText
1001
PHOENIX7010
1002
{
1070
    41
1040
2.0
1002
}
  0
LINE
  5
51E
330
18
100
AcDbEntity
  8
0
  6
Continuous
 62
     1
100
AcDbLine
 10
105.2384729057727
 20
90.89245072369491
 30
0.0
 11
119.9884423881945
 21
90.89245072369491
 31
0.0
1001
PHOENIX7010
1002
{
1070
    41
1040
2.0
1002
}
  0
CIRCLE
  5
527
330
18
100
AcDbEntity
  8
0
  6
Continuous
 62
     7
100
AcDbCircle
 10
61.63937747786355
 20
129.0424522495738
 30
0.0
 40
1.5
1001
PHOENIX7010
1002
{
1070
    41
1040
2.0
1002
}
  0
CIRCLE
  5
528
330
18
100
AcDbEntity
  8
0
  6
Continuous
 62
     7
100
AcDbCircle
 10
61.6393851072581
 20
106.81741562848
 30
0.0
 40
1.5
1001
PHOENIX7010
1002
{
1070
    41
1040
2.0
1002
}
  0
CIRCLE
  5
529
330
18
100
AcDbEntity
  8
0
  6
Continuous
 62
     7
100
AcDbCircle
 10
61.6393851072581
 20
98.66741410260113
 30
0.0
 40
1.149999976158142
1001
PHOENIX7010
1002
{
1070
    41
1040
2.0
1002
}
  0
CIRCLE
  5
52A
330
18
100
AcDbEntity
  8
0
  6
Continuous
 62
     7
100
AcDbCircle
 10
69.1393851072581
 20
98.66741410260113
 30
0.0
 40
1.149999976158142
1001
PHOENIX7010
1002
{
1070
    41
1040
2.0
1002
}
  0
LINE
  5
52B
330
18
100
AcDbEntity
  8
0
  6
Continuous
 62
     7
100
AcDbLine
 10
53.63937747786355
 20
95.89245072369488
 30
0.0
 11
72.28937900374245
 21
95.89245072369488
 31
0.0
1001
PHOENIX7010
1002
{
1070
    41
1040
2.0
1002
}
  0
LINE
  5
52C
330
18
100
AcDbEntity
  8
0
  6
Continuous
 62
     7
100
AcDbLine
 10
53.63937747786355
 20
95.89245072369488
 30
0.0
 11
53.63937747786355
 21
135.73050156598
 31
0.0
1001
PHOENIX7010
1002
{
1070
    41
1040
2.0
1002
}
  0
LINE
  5
52D
330
18
100
AcDbEntity
  8
0
  6
ACAD_ISO02W100
 62
     5
100
AcDbLine
 10
55.13937747786354
 20
95.89245072369488
 30
0.0
 11
55.13937747786354
 21
137.2221321201792
 31
0.0
1001
PHOENIX7010
1002
{
1070
    41
1040
2.0
1002
}
  0
LINE
  5
52E
330
18
100
AcDbEntity
  8
0
  6
Continuous
 62
     7
100
AcDbLine
 10
72.28937900374245
 20
95.89245072369488
 30
0.0
 11
72.28937900374245
 21
143.289713296937
 31
0.0
1001
PHOENIX7010
1002
{
1070
    41
1040
2.0
1002
}
  0
LINE
  5
52F
330
18
100
AcDbEntity
  8
0
  6
Continuous
 62
     7
100
AcDbLine
 10
53.63937747786355
 20
184.4174446201792
 30
0.0
 11
72.28937900374245
 21
184.4174446201792
 31
0.0
1001
PHOENIX7010
1002
{
1070
    41
1040
2.0
1002
}
  0
CIRCLE
  5
530
330
18
100
AcDbEntity
  8
0
  6
Continuous
 62
     7
100
AcDbCircle
 10
61.6393851072581
 20
181.6424507236949
 30
0.0
 40
1.149999976158142
1001
PHOENIX7010
1002
{
1070
    41
1040
2.0
1002
}
  0
CIRCLE
  5
531
330
18
100
AcDbEntity
  8
0
  6
Continuous
 62
     7
100
AcDbCircle
 10
69.1393851072581
 20
181.6424507236949
 30
0.0
 40
1.149999976158142
1001
PHOENIX7010
1002
{
1070
    41
1040
2.0
1002
}
  0
CIRCLE
  5
532
330
18
100
AcDbEntity
  8
0
  6
Continuous
 62
     7
100
AcDbCircle
 10
61.63937747786355
 20
173.4924568272105
 30
0.0
 40
1.5
1001
PHOENIX7010
1002
{
1070
    41
1040
2.0
1002
}
  0
LINE
  5
533
330
18
100
AcDbEntity
  8
0
  6
Continuous
 62
     7
100
AcDbLine
 10
53.63937747786355
 20
138.23050156598
 30
0.0
 11
53.63937747786355
 21
184.4174446201792
 31
0.0
1001
PHOENIX7010
1002
{
1070
    41
1040
2.0
1002
}
  0
LINE
  5
534
330
18
100
AcDbEntity
  8
0
  6
Continuous
 62
     7
100
AcDbLine
 10
72.28937900374245
 20
145.7897132969371
 30
0.0
 11
72.28937900374245
 21
184.4174446201792
 31
0.0
1001
PHOENIX7010
1002
{
1070
    41
1040
2.0
1002
}
  0
CIRCLE
  5
535
330
18
100
AcDbEntity
  8
0
  6
Continuous
 62
     7
100
AcDbCircle
 10
61.63937747786355
 20
151.2674507236949
 30
0.0
 40
1.5
1001
PHOENIX7010
1002
{
1070
    41
1040
2.0
1002
}
  0
LINE
  5
536
330
18
100
AcDbEntity
  8
0
  6
ACAD_ISO02W100
 62
     5
100
AcDbLine
 10
55.13937747786354
 20
139.7221321201792
 30
0.0
 11
55.13937747786354
 21
184.4174446201792
 31
0.0
1001
PHOENIX7010
1002
{
1070
    41
1040
2.0
1002
}
  0
LINE
  5
537
330
18
100
AcDbEntity
  8
0
  6
Continuous
 62
     1
100
AcDbLine
 10
55.62738406966042
 20
137.7074150181285
 30
0.0
 11
59.05723178694561
 21
136.6538032627574
 31
0.0
1001
PHOENIX7010
1002
{
1070
    41
1040
2.0
1002
}
  0
LINE
  5
538
330
18
100
AcDbEntity
  8
0
  6
Continuous
 62
     1
100
AcDbLine
 10
59.05723178694561
 20
136.6538032627574
 30
0.0
 11
62.78371036360574
 21
139.8650383091441
 31
0.0
1001
PHOENIX7010
1002
{
1070
    41
1040
2.0
1002
}
  0
LINE
  5
539
330
18
100
AcDbEntity
  8
0
  6
Continuous
 62
     1
100
AcDbLine
 10
62.78371036360574
 20
139.8650383091441
 30
0.0
 11
68.60581577132061
 21
139.8602394199839
 31
0.0
1001
PHOENIX7010
1002
{
1070
    41
1040
2.0
1002
}
  0
LINE
  5
53A
330
18
100
AcDbEntity
  8
0
  6
Continuous
 62
     1
100
AcDbLine
 10
68.60581577132061
 20
139.8602394199839
 30
0.0
 11
70.4720572263987
 21
142.3862709141245
 31
0.0
1001
PHOENIX7010
1002
{
1070
    41
1040
2.0
1002
}
  0
LINE
  5
53B
330
18
100
AcDbEntity
  8
0
  6
Continuous
 62
     1
100
AcDbLine
 10
53.63937747786355
 20
135.73050156598
 30
0.0
 11
55.62738406966042
 21
137.7074150181285
 31
0.0
1001
PHOENIX7010
1002
{
1070
    41
1040
2.0
1002
}
  0
LINE
  5
53C
330
18
100
AcDbEntity
  8
0
  6
Continuous
 62
     1
100
AcDbLine
 10
70.4720572263987
 20
142.3862709141245
 30
0.0
 11
72.28937900374245
 21
143.289713296937
 31
0.0
1001
PHOENIX7010
1002
{
1070
    41
1040
2.0
1002
}
  0
LINE
  5
53D
330
18
100
AcDbEntity
  8
0
  6
Continuous
 62
     1
100
AcDbLine
 10
55.62738406966042
 20
140.2074150181285
 30
0.0
 11
59.05723178694561
 21
139.1538032627574
 31
0.0
1001
PHOENIX7010
1002
{
1070
    41
1040
2.0
1002
}
  0
LINE
  5
53E
330
18
100
AcDbEntity
  8
0
  6
Continuous
 62
     1
100
AcDbLine
 10
59.05723178694561
 20
139.1538032627574
 30
0.0
 11
62.78371036360574
 21
142.3650383091441
 31
0.0
1001
PHOENIX7010
1002
{
1070
    41
1040
2.0
1002
}
  0
LINE
  5
53F
330
18
100
AcDbEntity
  8
0
  6
Continuous
 62
     1
100
AcDbLine
 10
62.78371036360574
 20
142.3650383091441
 30
0.0
 11
68.60581577132061
 21
142.3602394199839
 31
0.0
1001
PHOENIX7010
1002
{
1070
    41
1040
2.0
1002
}
  0
LINE
  5
540
330
18
100
AcDbEntity
  8
0
  6
Continuous
 62
     1
100
AcDbLine
 10
68.60581577132061
 20
142.3602394199839
 30
0.0
 11
70.4720572263987
 21
144.8862709141246
 31
0.0
1001
PHOENIX7010
1002
{
1070
    41
1040
2.0
1002
}
  0
LINE
  5
541
330
18
100
AcDbEntity
  8
0
  6
Continuous
 62
     1
100
AcDbLine
 10
53.63937747786355
 20
138.23050156598
 30
0.0
 11
55.62738406966042
 21
140.2074150181285
 31
0.0
1001
PHOENIX7010
1002
{
1070
    41
1040
2.0
1002
}
  0
LINE
  5
542
330
18
100
AcDbEntity
  8
0
  6
Continuous
 62
     1
100
AcDbLine
 10
70.4720572263987
 20
144.8862709141246
 30
0.0
 11
72.28937900374245
 21
145.7897132969371
 31
0.0
1001
PHOENIX7010
1002
{
1070
    41
1040
2.0
1002
}
  0
LINE
  5
543
102
{ACAD_REACTORS
330
4DA
330
4D7
102
}
330
18
100
AcDbEntity
  8
0
  6
Continuous
 62
     7
100
AcDbLine
 10
108.7384729057726
 20
95.89245072369488
 30
0.0
 11
108.7384729057726
 21
137.2127784824839
 31
0.0
1001
PHOENIX7010
1002
{
1070
    41
1040
2.0
1002
}
  0
LINE
  5
544
102
{ACAD_REACTORS
330
4DA
330
4D7
102
}
330
18
100
AcDbEntity
  8
0
  6
Continuous
 62
     7
100
AcDbLine
 10
108.7384729057726
 20
139.7127784824839
 30
0.0
 11
108.7384729057726
 21
184.3674263096324
 31
0.0
1001
PHOENIX7010
1002
{
1070
    41
1040
2.0
1002
}
  0
LINE
  5
545
102
{ACAD_REACTORS
330
4DA
330
4D7
102
}
330
18
100
AcDbEntity
  8
0
  6
ACAD_ISO02W100
 62
     5
100
AcDbLine
 10
119.1884851128039
 20
95.89245072369488
 30
0.0
 11
119.1884851128039
 21
139.89456406598
 31
0.0
1001
PHOENIX7010
1002
{
1070
    41
1040
2.0
1002
}
  0
LINE
  5
546
102
{ACAD_REACTORS
330
4DA
330
4D7
102
}
330
18
100
AcDbEntity
  8
0
  6
Continuous
 62
     7
100
AcDbLine
 10
120.4384851128039
 20
95.89245072369488
 30
0.0
 11
120.4384851128039
 21
140.0889839268199
 31
0.0
1001
PHOENIX7010
1002
{
1070
    41
1040
2.0
1002
}
  0
LINE
  5
547
102
{ACAD_REACTORS
330
4DA
330
4D7
102
}
330
18
100
AcDbEntity
  8
0
  6
ACAD_ISO02W100
 62
     5
100
AcDbLine
 10
119.1884851128039
 20
142.39456406598
 30
0.0
 11
119.1884851128039
 21
184.3674263096324
 31
0.0
1001
PHOENIX7010
1002
{
1070
    41
1040
2.0
1002
}
  0
LINE
  5
548
102
{ACAD_REACTORS
330
4DA
330
4D7
102
}
330
18
100
AcDbEntity
  8
0
  6
Continuous
 62
     7
100
AcDbLine
 10
120.4384851128039
 20
142.5889839268199
 30
0.0
 11
120.4384851128039
 21
184.3674263096324
 31
0.0
1001
PHOENIX7010
1002
{
1070
    41
1040
2.0
1002
}
  0
LINE
  5
549
102
{ACAD_REACTORS
330
4DA
330
4D7
102
}
330
18
100
AcDbEntity
  8
0
  6
Continuous
 62
     7
100
AcDbLine
 10
108.7384729057726
 20
95.89245072369488
 30
0.0
 11
120.4384851128039
 21
95.89245072369488
 31
0.0
1001
PHOENIX7010
1002
{
1070
    41
1040
2.0
1002
}
  0
LINE
  5
54A
102
{ACAD_REACTORS
330
4DA
330
4D7
102
}
330
18
100
AcDbEntity
  8
0
  6
Continuous
 62
     7
100
AcDbLine
 10
120.4384851128039
 20
184.3674568272105
 30
0.0
 11
108.7384729057726
 21
184.3674568272105
 31
0.0
1001
PHOENIX7010
1002
{
1070
    41
1040
2.0
1002
}
  0
ARC
  5
54B
330
18
100
AcDbEntity
  8
0
  6
Continuous
 62
     7
100
AcDbCircle
 10
113.138466802257
 20
114.7299522495738
 30
0.0
 40
2.599999904632568
100
AcDbArc
 50
133.8501892089872
 51
226.1498107910125
1001
PHOENIX7010
1002
{
1070
    41
1040
2.0
1002
}
  0
ARC
  5
54C
330
18
100
AcDbEntity
  8
0
  6
Continuous
 62
     7
100
AcDbCircle
 10
113.138466802257
 20
114.7299522495738
 30
0.0
 40
2.599999904632568
100
AcDbArc
 50
313.8501892089873
 51
46.14981079101272
1001
PHOENIX7010
1002
{
1070
    41
1040
2.0
1002
}
  0
LINE
  5
54D
330
18
100
AcDbEntity
  8
0
  6
Continuous
 62
     7
100
AcDbLine
 10
111.3372583061633
 20
116.6049522495738
 30
0.0
 11
114.9396905571398
 21
116.6049522495738
 31
0.0
1001
PHOENIX7010
1002
{
1070
    41
1040
2.0
1002
}
  0
LINE
  5
54E
330
18
100
AcDbEntity
  8
0
  6
Continuous
 62
     7
100
AcDbLine
 10
111.3372583061633
 20
112.8549522495738
 30
0.0
 11
114.9396905571398
 21
112.8549522495738
 31
0.0
1001
PHOENIX7010
1002
{
1070
    41
1040
2.0
1002
}
  0
ARC
  5
54F
330
18
100
AcDbEntity
  8
0
  6
Continuous
 62
     7
100
AcDbCircle
 10
113.138466802257
 20
165.5299476719371
 30
0.0
 40
2.599999904632568
100
AcDbArc
 50
133.8501892089872
 51
226.1498107910125
1001
PHOENIX7010
1002
{
1070
    41
1040
2.0
1002
}
  0
ARC
  5
550
330
18
100
AcDbEntity
  8
0
  6
Continuous
 62
     7
100
AcDbCircle
 10
113.138466802257
 20
165.5299476719371
 30
0.0
 40
2.599999904632568
100
AcDbArc
 50
313.8501892089873
 51
46.14981079101272
1001
PHOENIX7010
1002
{
1070
    41
1040
2.0
1002
}
  0
LINE
  5
551
330
18
100
AcDbEntity
  8
0
  6
Continuous
 62
     7
100
AcDbLine
 10
111.3372583061633
 20
167.4049476719371
 30
0.0
 11
114.9396905571398
 21
167.4049476719371
 31
0.0
1001
PHOENIX7010
1002
{
1070
    41
1040
2.0
1002
}
  0
LINE
  5
552
330
18
100
AcDbEntity
  8
0
  6
Continuous
 62
     7
100
AcDbLine
 10
111.3372583061633
 20
163.6549476719371
 30
0.0
 11
114.9396905571398
 21
163.6549476719371
 31
0.0
1001
PHOENIX7010
1002
{
1070
    41
1040
2.0
1002
}
  0
LINE
  5
55B
330
18
100
AcDbEntity
  8
0
  6
Continuous
 62
     1
100
AcDbLine
 10
108.7384729057726
 20
139.7127784824839
 30
0.0
 11
110.055199590343
 21
140.5728324985972
 31
0.0
1001
PHOENIX7010
1002
{
1070
    41
1040
2.0
1002
}
  0
LINE
  5
55C
330
18
100
AcDbEntity
  8
0
  6
Continuous
 62
     1
100
AcDbLine
 10
110.055199590343
 20
140.5728324985972
 30
0.0
 11
113.264687505382
 21
140.1699852085581
 31
0.0
1001
PHOENIX7010
1002
{
1070
    41
1040
2.0
1002
}
  0
LINE
  5
55D
330
18
100
AcDbEntity
  8
0
  6
Continuous
 62
     1
100
AcDbLine
 10
113.264687505382
 20
140.1699852085581
 30
0.0
 11
115.4969110161242
 21
141.8203758335582
 31
0.0
1001
PHOENIX7010
1002
{
1070
    41
1040
2.0
1002
}
  0
LINE
  5
55E
330
18
100
AcDbEntity
  8
0
  6
Continuous
 62
     1
100
AcDbLine
 10
115.4969110161242
 20
141.8203758335582
 30
0.0
 11
120.4384851128039
 21
142.5889839268199
 31
0.0
1001
PHOENIX7010
1002
{
1070
    41
1040
2.0
1002
}
  0
LINE
  5
55F
102
{ACAD_REACTORS
330
4DE
330
4DA
330
4D7
102
}
330
18
100
AcDbEntity
  8
0
  6
Continuous
 62
     1
100
AcDbLine
 10
108.7384729057726
 20
137.2127784824839
 30
0.0
 11
110.055199590343
 21
138.0728324985972
 31
0.0
1001
PHOENIX7010
1002
{
1070
    41
1040
2.0
1002
}
  0
LINE
  5
560
102
{ACAD_REACTORS
330
4DE
330
4DA
330
4D7
102
}
330
18
100
AcDbEntity
  8
0
  6
Continuous
 62
     1
100
AcDbLine
 10
110.055199590343
 20
138.0728324985972
 30
0.0
 11
113.264687505382
 21
137.6699852085581
 31
0.0
1001
PHOENIX7010
1002
{
1070
    41
1040
2.0
1002
}
  0
LINE
  5
561
102
{ACAD_REACTORS
330
4DE
330
4DA
330
4D7
102
}
330
18
100
AcDbEntity
  8
0
  6
Continuous
 62
     1
100
AcDbLine
 10
113.264687505382
 20
137.6699852085581
 30
0.0
 11
115.4969110161242
 21
139.3203758335581
 31
0.0
1001
PHOENIX7010
1002
{
1070
    41
1040
2.0
1002
}
  0
LINE
  5
562
102
{ACAD_REACTORS
330
4DE
330
4DA
330
4D7
102
}
330
18
100
AcDbEntity
  8
0
  6
Continuous
 62
     1
100
AcDbLine
 10
115.4969110161242
 20
139.3203758335581
 30
0.0
 11
120.4384851128039
 21
140.0889839268199
 31
0.0
1001
PHOENIX7010
1002
{
1070
    41
1040
2.0
1002
}
  0
LINE
  5
563
330
18
100
AcDbEntity
  8
0
  6
Continuous
 62
     1
100
AcDbLine
 10
77.28937900374245
 20
95.89245072369488
 30
0.0
 11
77.28937900374245
 21
184.4174446201792
 31
0.0
1001
PHOENIX7010
1002
{
1070
    41
1040
2.0
1002
}
  0
LINE
  5
564
330
18
100
AcDbEntity
  8
0
  6
Continuous
 62
     1
100
AcDbLine
 10
72.28937900374245
 20
95.89245072369488
 30
0.0
 11
78.28937900374246
 21
95.89245072369488
 31
0.0
1001
PHOENIX7010
1002
{
1070
    41
1040
2.0
1002
}
  0
LINE
  5
565
330
18
100
AcDbEntity
  8
0
  6
Continuous
 62
     1
100
AcDbLine
 10
72.28937900374245
 20
184.4174446201792
 30
0.0
 11
78.28937900374246
 21
184.4174446201792
 31
0.0
1001
PHOENIX7010
1002
{
1070
    41
1040
2.0
1002
}
  0
LINE
  5
566
330
18
100
AcDbEntity
  8
0
  6
Continuous
 62
     1
100
AcDbLine
 10
77.28937900374245
 20
95.89245072369488
 30
0.0
 11
77.06095874617409
 21
97.62747803692731
 31
0.0
1001
PHOENIX7010
1002
{
1070
    41
1040
2.0
1002
}
  0
LINE
  5
567
330
18
100
AcDbEntity
  8
0
  6
Continuous
 62
     1
100
AcDbLine
 10
77.28937900374245
 20
95.89245072369488
 30
0.0
 11
77.51779926131084
 21
97.62747803692731
 31
0.0
1001
PHOENIX7010
1002
{
1070
    41
1040
2.0
1002
}
  0
LINE
  5
568
330
18
100
AcDbEntity
  8
0
  6
Continuous
 62
     1
100
AcDbLine
 10
77.28937900374245
 20
184.4174446201792
 30
0.0
 11
77.06095874617409
 21
182.6824134922495
 31
0.0
1001
PHOENIX7010
1002
{
1070
    41
1040
2.0
1002
}
  0
LINE
  5
569
330
18
100
AcDbEntity
  8
0
  6
Continuous
 62
     1
100
AcDbLine
 10
77.28937900374245
 20
184.4174446201792
 30
0.0
 11
77.51779926131084
 21
182.6824134922495
 31
0.0
1001
PHOENIX7010
1002
{
1070
    41
1040
2.0
1002
}
  0
TEXT
  5
56A
330
18
100
AcDbEntity
  8
0
 62
     5
100
AcDbText
 10
76.78937900374245
 20
137.1549553013316
 30
0.0
 40
2.5
  1
  H  
 50
90.0
 72
     1
 11
76.78937900374245
 21
140.1549553013316
 31
0.0
100
AcDbText
1001
PHOENIX7010
1002
{
1070
    41
1040
2.0
1002
}
  0
LINE
  5
56B
330
18
100
AcDbEntity
  8
0
  6
Continuous
 62
     1
100
AcDbLine
 10
103.7384652763781
 20
165.5299476719371
 30
0.0
 11
103.7384652763781
 21
184.3674263096324
 31
0.0
1001
PHOENIX7010
1002
{
1070
    41
1040
2.0
1002
}
  0
LINE
  5
56C
330
18
100
AcDbEntity
  8
0
  6
Continuous
 62
     1
100
AcDbLine
 10
113.138466802257
 20
165.5299476719371
 30
0.0
 11
102.7384652763781
 21
165.5299476719371
 31
0.0
1001
PHOENIX7010
1002
{
1070
    41
1040
2.0
1002
}
  0
LINE
  5
56D
330
18
100
AcDbEntity
  8
0
  6
Continuous
 62
     1
100
AcDbLine
 10
108.7384729057726
 20
184.3674263096324
 30
0.0
 11
102.7384652763781
 21
184.3674263096324
 31
0.0
1001
PHOENIX7010
1002
{
1070
    41
1040
2.0
1002
}
  0
LINE
  5
56E
330
18
100
AcDbEntity
  8
0
  6
Continuous
 62
     1
100
AcDbLine
 10
103.7384652763781
 20
165.5299476719371
 30
0.0
 11
103.5100412041125
 21
167.2649787998667
 31
0.0
1001
PHOENIX7010
1002
{
1070
    41
1040
2.0
1002
}
  0
LINE
  5
56F
330
18
100
AcDbEntity
  8
0
  6
Continuous
 62
     1
100
AcDbLine
 10
103.7384652763781
 20
165.5299476719371
 30
0.0
 11
103.9668893486437
 21
167.2649787998667
 31
0.0
1001
PHOENIX7010
1002
{
1070
    41
1040
2.0
1002
}
  0
LINE
  5
570
330
18
100
AcDbEntity
  8
0
  6
Continuous
 62
     1
100
AcDbLine
 10
103.7384652763781
 20
184.3674263096324
 30
0.0
 11
103.5100412041125
 21
182.6323951817027
 31
0.0
1001
PHOENIX7010
1002
{
1070
    41
1040
2.0
1002
}
  0
LINE
  5
571
330
18
100
AcDbEntity
  8
0
  6
Continuous
 62
     1
100
AcDbLine
 10
103.7384652763781
 20
184.3674263096324
 30
0.0
 11
103.9668893486437
 21
182.6323951817027
 31
0.0
1001
PHOENIX7010
1002
{
1070
    41
1040
2.0
1002
}
  0
TEXT
  5
572
330
18
100
AcDbEntity
  8
0
 62
     5
100
AcDbText
 10
103.2384652763781
 20
171.9486946201792
 30
0.0
 40
2.5
  1
37.7
 50
90.0
 72
     1
 11
103.2384652763781
 21
174.9486946201792
 31
0.0
100
AcDbText
1001
PHOENIX7010
1002
{
1070
    41
1040
2.0
1002
}
  0
LINE
  5
573
330
18
100
AcDbEntity
  8
0
  6
Continuous
 62
     1
100
AcDbLine
 10
103.7384652763781
 20
95.89245072369488
 30
0.0
 11
103.7384652763781
 21
114.7299522495738
 31
0.0
1001
PHOENIX7010
1002
{
1070
    41
1040
2.0
1002
}
  0
LINE
  5
574
330
18
100
AcDbEntity
  8
0
  6
Continuous
 62
     1
100
AcDbLine
 10
108.7384729057726
 20
95.89245072369488
 30
0.0
 11
102.7384652763781
 21
95.89245072369488
 31
0.0
1001
PHOENIX7010
1002
{
1070
    41
1040
2.0
1002
}
  0
LINE
  5
575
330
18
100
AcDbEntity
  8
0
  6
Continuous
 62
     1
100
AcDbLine
 10
113.138466802257
 20
114.7299522495738
 30
0.0
 11
102.7384652763781
 21
114.7299522495738
 31
0.0
1001
PHOENIX7010
1002
{
1070
    41
1040
2.0
1002
}
  0
LINE
  5
576
330
18
100
AcDbEntity
  8
0
  6
Continuous
 62
     1
100
AcDbLine
 10
103.7384652763781
 20
95.89245072369488
 30
0.0
 11
103.5100412041125
 21
97.62747803692731
 31
0.0
1001
PHOENIX7010
1002
{
1070
    41
1040
2.0
1002
}
  0
LINE
  5
577
330
18
100
AcDbEntity
  8
0
  6
Continuous
 62
     1
100
AcDbLine
 10
103.7384652763781
 20
95.89245072369488
 30
0.0
 11
103.9668893486437
 21
97.62747803692731
 31
0.0
1001
PHOENIX7010
1002
{
1070
    41
1040
2.0
1002
}
  0
LINE
  5
578
330
18
100
AcDbEntity
  8
0
  6
Continuous
 62
     1
100
AcDbLine
 10
103.7384652763781
 20
114.7299522495738
 30
0.0
 11
103.5100412041125
 21
112.9949211216441
 31
0.0
1001
PHOENIX7010
1002
{
1070
    41
1040
2.0
1002
}
  0
LINE
  5
579
330
18
100
AcDbEntity
  8
0
  6
Continuous
 62
     1
100
AcDbLine
 10
103.7384652763781
 20
114.7299522495738
 30
0.0
 11
103.9668893486437
 21
112.9949211216441
 31
0.0
1001
PHOENIX7010
1002
{
1070
    41
1040
2.0
1002
}
  0
TEXT
  5
57A
330
18
100
AcDbEntity
  8
0
 62
     5
100
AcDbText
 10
103.2384652763781
 20
102.3112014866343
 30
0.0
 40
2.5
  1
37.7
 50
90.0
 72
     1
 11
103.2384652763781
 21
105.3112014866343
 31
0.0
100
AcDbText
1001
PHOENIX7010
1002
{
1070
    41
1040
2.0
1002
}
  0
LINE
  5
583
330
18
100
AcDbEntity
  8
0
  6
Continuous
 62
     1
100
AcDbLine
 10
48.63937747786358
 20
57.38818928057776
 30
0.0
 11
48.63937747786358
 21
69.08818813616858
 31
0.0
1001
PHOENIX7010
1002
{
1070
    41
1040
2.0
1002
}
  0
LINE
  5
584
330
18
100
AcDbEntity
  8
0
  6
Continuous
 62
     1
100
AcDbLine
 10
53.63937747786355
 20
57.38818928057776
 30
0.0
 11
47.63937747786354
 21
57.38818928057776
 31
0.0
1001
PHOENIX7010
1002
{
1070
    41
1040
2.0
1002
}
  0
LINE
  5
585
330
18
100
AcDbEntity
  8
0
  6
Continuous
 62
     1
100
AcDbLine
 10
53.63937747786355
 20
69.08818813616858
 30
0.0
 11
47.63937747786354
 21
69.08818813616858
 31
0.0
1001
PHOENIX7010
1002
{
1070
    41
1040
2.0
1002
}
  0
LINE
  5
586
330
18
100
AcDbEntity
  8
0
  6
Continuous
 62
     1
100
AcDbLine
 10
48.63937747786358
 20
57.38818928057776
 30
0.0
 11
48.41095722029518
 21
59.12321850115882
 31
0.0
1001
PHOENIX7010
1002
{
1070
    41
1040
2.0
1002
}
  0
LINE
  5
587
330
18
100
AcDbEntity
  8
0
  6
Continuous
 62
     1
100
AcDbLine
 10
48.63937747786358
 20
57.38818928057776
 30
0.0
 11
48.86779773543191
 21
59.12321850115882
 31
0.0
1001
PHOENIX7010
1002
{
1070
    41
1040
2.0
1002
}
  0
LINE
  5
588
330
18
100
AcDbEntity
  8
0
  6
Continuous
 62
     1
100
AcDbLine
 10
48.63937747786358
 20
69.08818813616858
 30
0.0
 11
48.41095722029518
 21
67.35316082293616
 31
0.0
1001
PHOENIX7010
1002
{
1070
    41
1040
2.0
1002
}
  0
LINE
  5
589
330
18
100
AcDbEntity
  8
0
  6
Continuous
 62
     1
100
AcDbLine
 10
48.63937747786358
 20
69.08818813616858
 30
0.0
 11
48.86779773543191
 21
67.35316082293616
 31
0.0
1001
PHOENIX7010
1002
{
1070
    41
1040
2.0
1002
}
  0
TEXT
  5
58A
330
18
100
AcDbEntity
  8
0
 62
     5
100
AcDbText
 10
48.13937747786354
 20
60.14493178803174
 30
0.0
 40
2.5
  1
23.4
 50
90.0
 72
     1
 11
48.13937747786354
 21
63.23818966204749
 31
0.0
100
AcDbText
1001
PHOENIX7010
1002
{
1070
    41
1040
2.0
1002
}
  0
LINE
  5
58B
330
18
100
AcDbEntity
  8
0
  6
Continuous
 62
     1
100
AcDbLine
 10
53.63937747786355
 20
47.38818737322913
 30
0.0
 11
72.28937900374245
 21
47.38818737322913
 31
0.0
1001
PHOENIX7010
1002
{
1070
    41
1040
2.0
1002
}
  0
LINE
  5
58C
330
18
100
AcDbEntity
  8
0
  6
Continuous
 62
     1
100
AcDbLine
 10
53.63937747786355
 20
52.38818737322913
 30
0.0
 11
53.63937747786355
 21
46.38818737322913
 31
0.0
1001
PHOENIX7010
1002
{
1070
    41
1040
2.0
1002
}
  0
LINE
  5
58D
330
18
100
AcDbEntity
  8
0
  6
Continuous
 62
     1
100
AcDbLine
 10
53.63937747786355
 20
47.38818737322913
 30
0.0
 11
55.37440479109597
 21
47.61660763079748
 31
0.0
1001
PHOENIX7010
1002
{
1070
    41
1040
2.0
1002
}
  0
LINE
  5
58E
330
18
100
AcDbEntity
  8
0
  6
Continuous
 62
     1
100
AcDbLine
 10
53.63937747786355
 20
47.38818737322913
 30
0.0
 11
55.37440479109597
 21
47.15976711566077
 31
0.0
1001
PHOENIX7010
1002
{
1070
    41
1040
2.0
1002
}
  0
LINE
  5
58F
330
18
100
AcDbEntity
  8
0
  6
Continuous
 62
     1
100
AcDbLine
 10
72.28937900374245
 20
47.38818737322913
 30
0.0
 11
70.55435169051003
 21
47.61660763079748
 31
0.0
1001
PHOENIX7010
1002
{
1070
    41
1040
2.0
1002
}
  0
LINE
  5
590
330
18
100
AcDbEntity
  8
0
  6
Continuous
 62
     1
100
AcDbLine
 10
72.28937900374245
 20
47.38818737322913
 30
0.0
 11
70.55435169051003
 21
47.15976711566077
 31
0.0
1001
PHOENIX7010
1002
{
1070
    41
1040
2.0
1002
}
  0
TEXT
  5
591
330
18
100
AcDbEntity
  8
0
 62
     5
100
AcDbText
 10
59.91260154550636
 20
47.88818737322912
 30
0.0
 40
2.5
  1
37.3
 72
     1
 11
62.964378240803
 21
47.88818737322912
 31
0.0
100
AcDbText
1001
PHOENIX7010
1002
{
1070
    41
1040
2.0
1002
}
  0
LINE
  5
592
330
18
100
AcDbEntity
  8
0
  6
Continuous
 62
     1
100
AcDbLine
 10
72.28937900374245
 20
57.38818928057776
 30
0.0
 11
72.28937900374245
 21
46.38818737322913
 31
0.0
1001
PHOENIX7010
1002
{
1070
    41
1040
2.0
1002
}
  0
LINE
  5
593
102
{ACAD_REACTORS
330
4DC
330
4DA
102
}
330
18
100
AcDbEntity
  8
0
  6
Continuous
 62
     1
100
AcDbLine
 10
53.63937747786355
 20
57.38818928057776
 30
0.0
 11
53.63937747786355
 21
51.38818928057776
 31
0.0
1001
PHOENIX7010
1002
{
1070
    41
1040
2.0
1002
}
  0
LINE
  5
594
102
{ACAD_REACTORS
330
4DC
330
4DA
102
}
330
18
100
AcDbEntity
  8
0
  6
Continuous
 62
     1
100
AcDbLine
 10
53.63937747786355
 20
52.38818928057776
 30
0.0
 11
51.90435016463112
 21
52.61660953814612
 31
0.0
1001
PHOENIX7010
1002
{
1070
    41
1040
2.0
1002
}
  0
LINE
  5
595
102
{ACAD_REACTORS
330
4DC
330
4DA
102
}
330
18
100
AcDbEntity
  8
0
  6
Continuous
 62
     1
100
AcDbLine
 10
53.63937747786355
 20
52.38818928057776
 30
0.0
 11
51.90435016463112
 21
52.15976902300941
 31
0.0
1001
PHOENIX7010
1002
{
1070
    41
1040
2.0
1002
}
  0
LINE
  5
596
102
{ACAD_REACTORS
330
4DC
330
4DA
102
}
330
18
100
AcDbEntity
  8
0
  6
Continuous
 62
     1
100
AcDbLine
 10
55.13937747786354
 20
52.38818928057776
 30
0.0
 11
56.87440479109596
 21
52.61660953814612
 31
0.0
1001
PHOENIX7010
1002
{
1070
    41
1040
2.0
1002
}
  0
LINE
  5
597
102
{ACAD_REACTORS
330
4DC
330
4DA
102
}
330
18
100
AcDbEntity
  8
0
  6
Continuous
 62
     1
100
AcDbLine
 10
55.13937747786354
 20
52.38818928057776
 30
0.0
 11
56.87440479109596
 21
52.15976902300941
 31
0.0
1001
PHOENIX7010
1002
{
1070
    41
1040
2.0
1002
}
  0
TEXT
  5
598
102
{ACAD_REACTORS
330
4DC
330
4DA
102
}
330
18
100
AcDbEntity
  8
0
 62
     5
100
AcDbText
 10
57.63937747786357
 20
52.88818928057776
 30
0.0
 40
2.5
  1
3
100
AcDbText
1001
PHOENIX7010
1002
{
1070
    41
1040
2.0
1002
}
  0
LINE
  5
599
102
{ACAD_REACTORS
330
4DC
330
4DA
102
}
330
18
100
AcDbEntity
  8
0
  6
Continuous
 62
     1
100
AcDbLine
 10
50.13937747786357
 20
52.38818928057776
 30
0.0
 11
59.17972553084206
 21
52.38818928057776
 31
0.0
1001
PHOENIX7010
1002
{
1070
    41
1040
2.0
1002
}
  0
LINE
  5
59A
102
{ACAD_REACTORS
330
4DC
330
4DA
102
}
330
18
100
AcDbEntity
  8
0
  6
Continuous
 62
     1
100
AcDbLine
 10
55.13937747786354
 20
58.86575313860999
 30
0.0
 11
55.13937747786354
 21
51.38818928057776
 31
0.0
1001
PHOENIX7010
1002
{
1070
    41
1040
2.0
1002
}
  0
HATCH
  5
9C1
102
{ACAD_REACTORS
330
A09
102
}
330
18
100
AcDbEntity
  8
0
  6
Continuous
 62
     1
370
    25
100
AcDbHatch
 10
0.0
 20
0.0
 30
0.0
210
0.0
220
0.0
230
1.0
  2
_U
 70
     0
 71
     1
 91
        1
 92
        0
 93
        5
 72
     1
 10
290.7167374970127
 20
17.58226905699018
 11
287.3667374970128
 21
13.68226905699015
 72
     1
 10
287.3667374970128
 20
13.68226905699021
 11
293.3667374970127
 21
13.68226905699021
 72
     1
 10
293.3667374970127
 20
13.68226905699021
 11
293.3667374970127
 21
17.58226905699024
 72
     1
 10
293.3667374970127
 20
17.58226905699007
 11
290.7167374970127
 21
14.13226905699014
 72
     1
 10
290.7167374970127
 20
14.13226905699025
 11
290.7167374970127
 21
17.58226905699024
 97
        1
330
A04
 75
     0
 76
     0
 52
45.0
 41
0.05
 77
     0
 78
     1
 53
45.0
 43
87.0
 44
-16.04442648603526
 45
-0.0353553390593274
 46
0.0353553390593274
 79
     0
 98
        1
 10
87.0
 20
-16.04442648603526
1001
PHOENIX7010
1002
{
1070
    41
1040
2.0
1002
}
  0
HATCH
  5
9C2
102
{ACAD_REACTORS
330
A09
102
}
330
18
100
AcDbEntity
  8
0
  6
Continuous
 62
     1
370
    25
100
AcDbHatch
 10
0.0
 20
0.0
 30
0.0
210
0.0
220
0.0
230
1.0
  2
_U
 70
     0
 71
     1
 91
        1
 92
        0
 93
        3
 72
     1
 10
286.9417374970128
 20
13.68226905699021
 11
286.9417374970128
 21
15.7572690569902
 72
     1
 10
286.9417374970128
 20
15.75726905699014
 11
289.0167374970129
 21
15.75726905699014
 72
     2
 10
286.9417374970128
 20
15.75726905699014
 40
2.074999999999988
 50
0.0000000000001962
 51
270.0
 73
     1
 97
        1
330
A05
 75
     0
 76
     0
 52
45.0
 41
0.325
 77
     0
 78
     1
 53
45.0
 43
87.0
 44
-16.04442648603526
 45
-0.2298097038856279
 46
0.229809703885628
 79
     0
 98
        1
 10
87.0
 20
-16.04442648603526
1001
PHOENIX7010
1002
{
1070
    41
1040
2.0
1002
}
  0
LINE
  5
9C3
102
{ACAD_REACTORS
330
A09
102
}
330
18
100
AcDbEntity
  8
0
  6
Continuous
 62
     7
370
    50
100
AcDbLine
 10
287.3667374970128
 20
13.68226905699021
 30
0.0
 11
293.3667374970127
 21
13.68226905699021
 31
0.0
1001
PHOENIX7010
1002
{
1070
    41
1040
2.0
1002
}
  0
LINE
  5
9C4
102
{ACAD_REACTORS
330
A09
102
}
330
18
100
AcDbEntity
  8
0
  6
Continuous
 62
     7
370
    50
100
AcDbLine
 10
293.3667374970127
 20
13.68226905699021
 30
0.0
 11
293.3667374970127
 21
17.58226905699007
 31
0.0
1001
PHOENIX7010
1002
{
1070
    41
1040
2.0
1002
}
  0
LINE
  5
9C5
102
{ACAD_REACTORS
330
A09
102
}
330
18
100
AcDbEntity
  8
0
  6
Continuous
 62
     7
370
    50
100
AcDbLine
 10
290.7167374970127
 20
14.13226905699014
 30
0.0
 11
290.7167374970127
 21
17.58226905699007
 31
0.0
1001
PHOENIX7010
1002
{
1070
    41
1040
2.0
1002
}
  0
LINE
  5
9C6
102
{ACAD_REACTORS
330
A09
102
}
330
18
100
AcDbEntity
  8
0
  6
Continuous
 62
     7
370
    50
100
AcDbLine
 10
290.7167374970127
 20
17.58226905699007
 30
0.0
 11
287.3667374970128
 21
13.68226905699021
 31
0.0
1001
PHOENIX7010
1002
{
1070
    41
1040
2.0
1002
}
  0
LINE
  5
9C7
102
{ACAD_REACTORS
330
A09
102
}
330
18
100
AcDbEntity
  8
0
  6
Continuous
 62
     7
370
    50
100
AcDbLine
 10
293.3667374970127
 20
17.58226905699007
 30
0.0
 11
290.7167374970127
 21
14.13226905699014
 31
0.0
1001
PHOENIX7010
1002
{
1070
    41
1040
2.0
1002
}
  0
INSERT
  5
9C8
102
{ACAD_REACTORS
330
A09
102
}
330
18
100
AcDbEntity
  8
0
  6
Continuous
 62
     1
370
    25
100
AcDbBlockReference
  2
PH_GRPBLK
 10
287.3667374970128
 20
13.68226905699021
 30
0.0
 41
0.5
 42
0.5
 43
0.5
1001
PHOENIX7010
1002
{
1070
    41
1040
2.0
1002
}
  0
MTEXT
  5
9C9
102
{ACAD_REACTORS
330
A0A
102
}
330
18
100
AcDbEntity
  8
0
  6
Continuous
 62
     7
370
    50
100
AcDbMText
 10
277.5421183277329
 20
8.941730300015706
 30
0.0
 40
0.8
 41
0.0
 71
     7
 72
     5
  1
{\fArial|b0|i0|c0|p34;\W1.1;\C1;A Phoenix Mecano Company}
 73
     1
 44
1.0
1001
PHOENIX7010
1002
{
1070
    41
1040
2.0
1002
}
1001
ACAD
1000
MTEXTBEGIN
1070
    73
1070
     1
1070
    44
1040
1.0
1070
    74
1070
     0
1000
MTEXTEND
  0
MTEXT
  5
9CA
102
{ACAD_XDICTIONARY
360
FDC
102
}
102
{ACAD_REACTORS
330
A0A
102
}
330
18
100
AcDbEntity
  8
0
  6
Continuous
 62
     7
370
    50
100
AcDbMText
 10
283.782940358793
 20
10.73258963663863
 30
0.0
 40
1.85
 41
0.0
 71
     7
 72
     5
  1
{\fArial|b1|i0|c0|p34;\W1.1;BOPLA}
 73
     1
 44
1.135135135135135
1001
PHOENIX7010
1002
{
1070
    41
1040
2.0
1002
}
1001
ACAD
1000
MTEXTBEGIN
1070
    73
1070
     1
1070
    44
1040
1.135135135135135
1070
    74
1070
     0
1000
MTEXTEND
  0
INSERT
  5
9CB
102
{ACAD_REACTORS
330
A0A
102
}
330
18
100
AcDbEntity
  8
0
  6
Continuous
 62
     7
370
    50
100
AcDbBlockReference
  2
PH_GRPBLK
 10
287.3667374970128
 20
13.68226905699021
 30
0.0
 41
0.5
 42
0.5
 43
0.5
1001
PHOENIX7010
1002
{
1070
    41
1040
2.0
1002
}
  0
MTEXT
  5
9CC
102
{ACAD_REACTORS
330
A0B
102
}
330
18
100
AcDbEntity
  8
0
  6
Continuous
 62
     5
370
    35
100
AcDbMText
 10
246.4652490890367
 20
26.09045021993552
 30
0.0
 40
1.75
 41
0.0
 71
     7
 72
     5
  1
{\C7;Katalogzeichnung/\Q20;Catalogue drawing}
 73
     1
 44
1.0
1001
PHOENIX7010
1002
{
1070
    41
1040
2.0
1002
}
1001
ACAD
1000
MTEXTBEGIN
1070
    73
1070
     1
1070
    44
1040
1.0
1070
    74
1070
     0
1000
MTEXTEND
  0
MTEXT
  5
9CD
102
{ACAD_REACTORS
330
A0B
102
}
330
18
100
AcDbEntity
  8
0
  6
Continuous
 62
     5
370
    35
100
AcDbMText
 10
246.4652490890367
 20
29.59045021993552
 30
0.0
 40
2.0
 41
0.0
 71
     7
 72
     5
  1
{\C7;FLU/M 00 . 00}
 73
     1
 44
1.0
1001
PHOENIX7010
1002
{
1070
    41
1040
2.0
1002
}
1001
ACAD
1000
MTEXTBEGIN
1070
    73
1070
     1
1070
    44
1040
1.0
1070
    74
1070
     0
1000
MTEXTEND
  0
MTEXT
  5
9CE
102
{ACAD_REACTORS
330
A0B
102
}
330
18
100
AcDbEntity
  8
0
  6
Continuous
 62
     5
370
    35
100
AcDbMText
 10
246.4652490890367
 20
33.09045021993552
 30
0.0
 40
2.0
 41
0.0
 71
     7
 72
     5
  1
{\C7;Interzoll Modul}
 73
     1
 44
1.0
1001
PHOENIX7010
1002
{
1070
    41
1040
2.0
1002
}
1001
ACAD
1000
MTEXTBEGIN
1070
    73
1070
     1
1070
    44
1040
1.0
1070
    74
1070
     0
1000
MTEXTEND
  0
MTEXT
  5
9CF
102
{ACAD_REACTORS
330
A0B
102
}
330
18
100
AcDbEntity
  8
0
  6
Continuous
 62
     5
370
    35
100
AcDbMText
 10
257.1537315484588
 20
47.59937900341173
 30
0.0
 40
2.0
 41
0.0
 71
     7
 72
     5
  1
{\C7;-}
 73
     1
 44
1.0
1001
PHOENIX7010
1002
{
1070
    41
1040
2.0
1002
}
1001
ACAD
1000
MTEXTBEGIN
1070
    73
1070
     1
1070
    44
1040
1.0
1070
    74
1070
     0
1000
MTEXTEND
  0
MTEXT
  5
9D0
102
{ACAD_REACTORS
330
A0B
102
}
330
18
100
AcDbEntity
  8
0
  6
Continuous
 62
     5
370
    35
100
AcDbMText
 10
246.6471381294941
 20
47.12334539627545
 30
0.0
 40
1.25
 41
0.0
 71
     7
 72
     5
  1
{\C1;Maßstab/\P\Q20;Scale:}
 73
     1
 44
1.0
1001
PHOENIX7010
1002
{
1070
    41
1040
2.0
1002
}
1001
ACAD
1000
MTEXTBEGIN
1070
    73
1070
     1
1070
    44
1040
1.0
1070
    74
1070
     0
1000
MTEXTEND
  0
MTEXT
  5
9D1
102
{ACAD_REACTORS
330
A0B
102
}
330
18
100
AcDbEntity
  8
0
  6
Continuous
 62
     5
370
    35
100
AcDbMText
 10
246.7851065381965
 20
43.28923089650288
 30
0.0
 40
1.5
 41
0.0
 71
     7
 72
     5
  1
Zeichnungs-Nr. / {\Q20;Drawing-No.:}
 73
     1
 44
1.0
1001
PHOENIX7010
1002
{
1070
    41
1040
2.0
1002
}
1001
ACAD
1000
MTEXTBEGIN
1070
    73
1070
     1
1070
    44
1040
1.0
1070
    74
1070
     0
1000
MTEXTEND
  0
MTEXT
  5
9D2
102
{ACAD_REACTORS
330
A0B
102
}
330
18
100
AcDbEntity
  8
0
  6
Continuous
 62
     5
370
    35
100
AcDbMText
 10
257.3405471084675
 20
40.21815233702773
 30
0.0
 40
2.0
 41
0.0
 71
     7
 72
     5
  1
{\C7;3K 5315.049.02}
 73
     1
 44
1.0
1001
PHOENIX7010
1002
{
1070
    41
1040
2.0
1002
}
1001
ACAD
1000
MTEXTBEGIN
1070
    73
1070
     1
1070
    44
1040
1.0
1070
    74
1070
     0
1000
MTEXTEND
  0
MTEXT
  5
9D3
102
{ACAD_REACTORS
330
A0B
102
}
330
18
100
AcDbEntity
  8
0
  6
Continuous
 62
     5
370
    35
100
AcDbMText
 10
246.4400301190831
 20
36.21448083581845
 30
0.0
 40
2.0
 41
0.0
 71
     7
 72
     5
  1
{\C7;Artikel / \Q20;Article:}
 73
     1
 44
1.0
1001
PHOENIX7010
1002
{
1070
    41
1040
2.0
1002
}
1001
ACAD
1000
MTEXTBEGIN
1070
    73
1070
     1
1070
    44
1040
1.0
1070
    74
1070
     0
1000
MTEXTEND
  0
MTEXT
  5
9D4
102
{ACAD_REACTORS
330
A0B
102
}
330
18
100
AcDbEntity
  8
0
  6
Continuous
 62
     5
370
    35
100
AcDbMText
 10
251.7959170209492
 20
7.661521395955332
 30
0.0
 40
1.0
 41
0.0
 71
     7
 72
     5
  1
{\C1;Datum/\P\Q20;Date:}
 73
     1
 44
1.0
1001
PHOENIX7010
1002
{
1070
    41
1040
2.0
1002
}
1001
ACAD
1000
MTEXTBEGIN
1070
    73
1070
     1
1070
    44
1040
1.0
1070
    74
1070
     0
1000
MTEXTEND
  0
MTEXT
  5
9D5
102
{ACAD_REACTORS
330
A0B
102
}
330
18
100
AcDbEntity
  8
0
  6
Continuous
 62
     5
370
    35
100
AcDbMText
 10
245.0838791284714
 20
7.661519565268008
 30
0.0
 40
1.0
 41
0.0
 71
     7
 72
     5
  1
{\C1;Ä.Nr/\P\Q20;Alt-No.:}
 73
     1
 44
1.0
1001
PHOENIX7010
1002
{
1070
    41
1040
2.0
1002
}
1001
ACAD
1000
MTEXTBEGIN
1070
    73
1070
     1
1070
    44
1040
1.0
1070
    74
1070
     0
1000
MTEXTEND
  0
MTEXT
  5
9D6
102
{ACAD_REACTORS
330
A0B
102
}
330
18
100
AcDbEntity
  8
0
  6
Continuous
 62
     5
370
    35
100
AcDbMText
 10
258.1089329128586
 20
5.302960833069619
 30
0.0
 40
1.25
 41
0.0
 71
     7
 72
     5
  1
2 901 859
 73
     1
 44
1.0
1001
PHOENIX7010
1002
{
1070
    41
1040
2.0
1002
}
1001
ACAD
1000
MTEXTBEGIN
1070
    73
1070
     1
1070
    44
1040
1.0
1070
    74
1070
     0
1000
MTEXTEND
  0
MTEXT
  5
9D7
102
{ACAD_REACTORS
330
A0B
102
}
330
18
100
AcDbEntity
  8
0
  6
Continuous
 62
     5
370
    35
100
AcDbMText
 10
245.264495632347
 20
5.247377635490465
 30
0.0
 40
1.25
 41
0.0
 71
     7
 72
     5
  1
DISK:
 73
     1
 44
1.0
1001
PHOENIX7010
1002
{
1070
    41
1040
2.0
1002
}
1001
ACAD
1000
MTEXTBEGIN
1070
    73
1070
     1
1070
    44
1040
1.0
1070
    74
1070
     0
1000
MTEXTEND
  0
MTEXT
  5
9D8
102
{ACAD_REACTORS
330
A0B
102
}
330
18
100
AcDbEntity
  8
0
  6
Continuous
 62
     5
370
    35
100
AcDbMText
 10
258.1089329128586
 20
3.124443761593738
 30
0.0
 40
1.25
 41
0.0
 71
     7
 72
     5
  1
18.06.99 HR
 73
     1
 44
1.0
1001
PHOENIX7010
1002
{
1070
    41
1040
2.0
1002
}
1001
ACAD
1000
MTEXTBEGIN
1070
    73
1070
     1
1070
    44
1040
1.0
1070
    74
1070
     0
1000
MTEXTEND
  0
MTEXT
  5
9D9
102
{ACAD_REACTORS
330
A0B
102
}
330
18
100
AcDbEntity
  8
0
  6
Continuous
 62
     5
370
    35
100
AcDbMText
 10
245.264495632347
 20
3.124443761593738
 30
0.0
 40
1.25
 41
0.0
 71
     7
 72
     5
  1
Datum/{\Q20;Date:}
 73
     1
 44
1.0
1001
PHOENIX7010
1002
{
1070
    41
1040
2.0
1002
}
1001
ACAD
1000
MTEXTBEGIN
1070
    73
1070
     1
1070
    44
1040
1.0
1070
    74
1070
     0
1000
MTEXTEND
  0
LINE
  5
9DA
102
{ACAD_REACTORS
330
A0B
102
}
330
18
100
AcDbEntity
  8
0
  6
Continuous
 62
     5
370
    35
100
AcDbLine
 10
244.5
 20
7.25
 30
0.0
 11
294.5
 21
7.25
 31
0.0
1001
PHOENIX7010
1002
{
1070
    41
1040
2.0
1002
}
  0
LINE
  5
9DB
102
{ACAD_REACTORS
330
A0B
102
}
330
18
100
AcDbEntity
  8
0
  6
Continuous
 62
     5
100
AcDbLine
 10
289.75
 20
46.25
 30
0.0
 11
289.75
 21
49.75
 31
0.0
1001
PHOENIX7010
1002
{
1070
    62
1070
     5
1070
    41
1040
2.0
1002
}
  0
LINE
  5
9DC
102
{ACAD_REACTORS
330
A0B
102
}
330
18
100
AcDbEntity
  8
0
  6
ACAD_ISO04W100
 62
     1
 48
0.1451612903225806
100
AcDbLine
 10
292.25
 20
45.75
 30
0.0
 11
292.25
 21
50.25
 31
0.0
1001
PHOENIX7010
1002
{
1070
    62
1070
     1
1070
    41
1040
2.0
1002
}
  0
CIRCLE
  5
9DD
102
{ACAD_REACTORS
330
A0B
102
}
330
18
100
AcDbEntity
  8
0
  6
Continuous
 62
     5
100
AcDbCircle
 10
292.25
 20
48.0
 30
0.0
 40
0.875
1001
PHOENIX7010
1002
{
1070
    62
1070
     5
1070
    41
1040
2.0
1002
}
  0
CIRCLE
  5
9DE
102
{ACAD_REACTORS
330
A0B
102
}
330
18
100
AcDbEntity
  8
0
  6
Continuous
 62
     5
100
AcDbCircle
 10
292.25
 20
48.0
 30
0.0
 40
1.75
1001
PHOENIX7010
1002
{
1070
    62
1070
     5
1070
    41
1040
2.0
1002
}
  0
LINE
  5
9DF
102
{ACAD_REACTORS
330
A0B
102
}
330
18
100
AcDbEntity
  8
0
  6
Continuous
 62
     5
100
AcDbLine
 10
286.25
 20
47.125
 30
0.0
 11
286.25
 21
48.875
 31
0.0
1001
PHOENIX7010
1002
{
1070
    62
1070
     5
1070
    41
1040
2.0
1002
}
  0
LINE
  5
9E0
102
{ACAD_REACTORS
330
A0B
102
}
330
18
100
AcDbEntity
  8
0
  6
ACAD_ISO04W100
 62
     1
 48
0.282258064516129
100
AcDbLine
 10
294.5
 20
48.0
 30
0.0
 11
285.75
 21
48.0
 31
0.0
1001
PHOENIX7010
1002
{
1070
    62
1070
     1
1070
    41
1040
2.0
1002
}
  0
LINE
  5
9E1
102
{ACAD_REACTORS
330
A0B
102
}
330
18
100
AcDbEntity
  8
0
  6
Continuous
 62
     5
100
AcDbLine
 10
289.75
 20
46.25
 30
0.0
 11
286.25
 21
47.125
 31
0.0
1001
PHOENIX7010
1002
{
1070
    62
1070
     5
1070
    41
1040
2.0
1002
}
  0
LINE
  5
9E2
102
{ACAD_REACTORS
330
A0B
102
}
330
18
100
AcDbEntity
  8
0
  6
Continuous
 62
     5
100
AcDbLine
 10
289.75
 20
49.75
 30
0.0
 11
286.25
 21
48.875
 31
0.0
1001
PHOENIX7010
1002
{
1070
    62
1070
     5
1070
    41
1040
2.0
1002
}
  0
ARC
  5
9E3
102
{ACAD_REACTORS
330
A0B
102
}
330
18
100
AcDbEntity
  8
0
  6
Continuous
 62
     5
100
AcDbCircle
 10
245.75
 20
44.5
 30
0.0
 40
1.25
100
AcDbArc
 50
90.0
 51
180.0
1001
PHOENIX7010
1002
{
1070
    62
1070
     5
1070
    41
1040
2.0
1002
}
  0
ARC
  5
9E4
102
{ACAD_REACTORS
330
A0B
102
}
330
18
100
AcDbEntity
  8
0
  6
Continuous
 62
     5
100
AcDbCircle
 10
245.75
 20
50.0
 30
0.0
 40
1.25
100
AcDbArc
 50
90.0
 51
180.0
1001
PHOENIX7010
1002
{
1070
    62
1070
     5
1070
    41
1040
2.0
1002
}
  0
LINE
  5
9E5
102
{ACAD_REACTORS
330
A0B
102
}
330
18
100
AcDbEntity
  8
0
  6
Continuous
 62
     5
100
AcDbLine
 10
294.5
 20
45.75
 30
0.0
 11
245.75
 21
45.75
 31
0.0
1001
PHOENIX7010
1002
{
1070
    62
1070
     5
1070
    41
1040
2.0
1002
}
  0
LINE
  5
9E6
102
{ACAD_REACTORS
330
A0B
102
}
330
18
100
AcDbEntity
  8
0
  6
Continuous
 62
     5
100
AcDbLine
 10
294.5
 20
51.25
 30
0.0
 11
245.75
 21
51.25
 31
0.0
1001
PHOENIX7010
1002
{
1070
    62
1070
     5
1070
    41
1040
2.0
1002
}
  0
LINE
  5
9E7
102
{ACAD_REACTORS
330
A0B
102
}
330
18
100
AcDbEntity
  8
0
  6
Continuous
 62
     5
100
AcDbLine
 10
262.0
 20
24.0
 30
0.0
 11
262.0
 21
7.25
 31
0.0
1001
PHOENIX7010
1002
{
1070
    62
1070
     5
1070
    41
1040
2.0
1002
}
  0
TEXT
  5
9E8
102
{ACAD_REACTORS
330
A0B
102
}
330
18
100
AcDbEntity
  8
0
  6
Continuous
 62
     1
100
AcDbText
 10
251.4999998498661
 20
21.37499990750677
 30
0.0
 40
1.0
  1
-
 41
1.5
100
AcDbText
1001
PHOENIX7010
1002
{
1070
    62
1070
     1
1070
    41
1040
2.0
1002
}
  0
TEXT
  5
9E9
102
{ACAD_REACTORS
330
A0B
102
}
330
18
100
AcDbEntity
  8
0
  6
Continuous
 62
     1
100
AcDbText
 10
251.4999998498661
 20
20.12499990750677
 30
0.0
 40
1.0
  1
-
 41
1.5
100
AcDbText
1001
PHOENIX7010
1002
{
1070
    62
1070
     1
1070
    41
1040
2.0
1002
}
  0
TEXT
  5
9EA
102
{ACAD_REACTORS
330
A0B
102
}
330
18
100
AcDbEntity
  8
0
  6
Continuous
 62
     1
100
AcDbText
 10
251.4999998498661
 20
22.62499990750677
 30
0.0
 40
1.0
  1
-
 41
1.5
100
AcDbText
1001
PHOENIX7010
1002
{
1070
    62
1070
     1
1070
    41
1040
2.0
1002
}
  0
TEXT
  5
9EB
102
{ACAD_REACTORS
330
A0B
102
}
330
18
100
AcDbEntity
  8
0
  6
Continuous
 62
     1
100
AcDbText
 10
244.9999998498661
 20
21.37499990750677
 30
0.0
 40
1.0
  1
-
 41
1.5
100
AcDbText
1001
PHOENIX7010
1002
{
1070
    62
1070
     1
1070
    41
1040
2.0
1002
}
  0
TEXT
  5
9EC
102
{ACAD_REACTORS
330
A0B
102
}
330
18
100
AcDbEntity
  8
0
  6
Continuous
 62
     1
100
AcDbText
 10
244.9999998498661
 20
20.12499990750677
 30
0.0
 40
1.0
  1
-
 41
1.5
100
AcDbText
1001
PHOENIX7010
1002
{
1070
    62
1070
     1
1070
    41
1040
2.0
1002
}
  0
TEXT
  5
9ED
102
{ACAD_REACTORS
330
A0B
102
}
330
18
100
AcDbEntity
  8
0
  6
Continuous
 62
     1
100
AcDbText
 10
244.9999998498661
 20
22.62499990750677
 30
0.0
 40
1.0
  1
-
 41
1.5
100
AcDbText
1001
PHOENIX7010
1002
{
1070
    62
1070
     1
1070
    41
1040
2.0
1002
}
  0
ARC
  5
9EE
102
{ACAD_REACTORS
330
A0B
102
}
330
18
100
AcDbEntity
  8
0
  6
Continuous
 62
     5
100
AcDbCircle
 10
245.75
 20
22.75
 30
0.0
 40
1.25
100
AcDbArc
 50
90.0
 51
180.0
1001
PHOENIX7010
1002
{
1070
    62
1070
     5
1070
    41
1040
2.0
1002
}
  0
ARC
  5
9EF
102
{ACAD_REACTORS
330
A0B
102
}
330
18
100
AcDbEntity
  8
0
  6
Continuous
 62
     5
100
AcDbCircle
 10
245.75
 20
38.0
 30
0.0
 40
1.25
100
AcDbArc
 50
90.0
 51
180.0
1001
PHOENIX7010
1002
{
1070
    62
1070
     5
1070
    41
1040
2.0
1002
}
  0
TEXT
  5
9F0
102
{ACAD_REACTORS
330
A0B
102
}
330
18
100
AcDbEntity
  8
0
  6
Continuous
 62
     1
100
AcDbText
 10
251.4999998498661
 20
12.62499990750677
 30
0.0
 40
1.0
  1
-
 41
1.5
100
AcDbText
1001
PHOENIX7010
1002
{
1070
    62
1070
     1
1070
    41
1040
2.0
1002
}
  0
TEXT
  5
9F1
102
{ACAD_REACTORS
330
A0B
102
}
330
18
100
AcDbEntity
  8
0
  6
Continuous
 62
     1
100
AcDbText
 10
251.4999998498661
 20
11.37499990750677
 30
0.0
 40
1.0
  1
07.03.2014
 41
1.5
100
AcDbText
1001
PHOENIX7010
1002
{
1070
    62
1070
     1
1070
    41
1040
2.0
1002
}
  0
TEXT
  5
9F2
102
{ACAD_REACTORS
330
A0B
102
}
330
18
100
AcDbEntity
  8
0
  6
Continuous
 62
     1
100
AcDbText
 10
251.4999998498661
 20
15.12499990750677
 30
0.0
 40
1.0
  1
-
 41
1.5
100
AcDbText
1001
PHOENIX7010
1002
{
1070
    62
1070
     1
1070
    41
1040
2.0
1002
}
  0
TEXT
  5
9F3
102
{ACAD_REACTORS
330
A0B
102
}
330
18
100
AcDbEntity
  8
0
  6
Continuous
 62
     1
100
AcDbText
 10
251.4999998498661
 20
13.87499990750677
 30
0.0
 40
1.0
  1
-
 41
1.5
100
AcDbText
1001
PHOENIX7010
1002
{
1070
    62
1070
     1
1070
    41
1040
2.0
1002
}
  0
TEXT
  5
9F4
102
{ACAD_REACTORS
330
A0B
102
}
330
18
100
AcDbEntity
  8
0
  6
Continuous
 62
     1
100
AcDbText
 10
251.4999998498661
 20
16.37499990750677
 30
0.0
 40
1.0
  1
-
 41
1.5
100
AcDbText
1001
PHOENIX7010
1002
{
1070
    62
1070
     1
1070
    41
1040
2.0
1002
}
  0
TEXT
  5
9F5
102
{ACAD_REACTORS
330
A0B
102
}
330
18
100
AcDbEntity
  8
0
  6
Continuous
 62
     1
100
AcDbText
 10
251.4999998498661
 20
17.62499990750677
 30
0.0
 40
1.0
  1
-
 41
1.5
100
AcDbText
1001
PHOENIX7010
1002
{
1070
    62
1070
     1
1070
    41
1040
2.0
1002
}
  0
TEXT
  5
9F6
102
{ACAD_REACTORS
330
A0B
102
}
330
18
100
AcDbEntity
  8
0
  6
Continuous
 62
     1
100
AcDbText
 10
251.4999998498661
 20
18.87499990750677
 30
0.0
 40
1.0
  1
-
 41
1.5
100
AcDbText
1001
PHOENIX7010
1002
{
1070
    62
1070
     1
1070
    41
1040
2.0
1002
}
  0
TEXT
  5
9F7
102
{ACAD_REACTORS
330
A0B
102
}
330
18
100
AcDbEntity
  8
0
  6
Continuous
 62
     1
100
AcDbText
 10
244.9999998498661
 20
12.62499990750677
 30
0.0
 40
1.0
  1
-
 41
1.5
100
AcDbText
1001
PHOENIX7010
1002
{
1070
    62
1070
     1
1070
    41
1040
2.0
1002
}
  0
TEXT
  5
9F8
102
{ACAD_REACTORS
330
A0B
102
}
330
18
100
AcDbEntity
  8
0
  6
Continuous
 62
     1
100
AcDbText
 10
244.9999998498661
 20
11.37499990750677
 30
0.0
 40
1.0
  1
4086
 41
1.5
100
AcDbText
1001
PHOENIX7010
1002
{
1070
    62
1070
     1
1070
    41
1040
2.0
1002
}
  0
TEXT
  5
9F9
102
{ACAD_REACTORS
330
A0B
102
}
330
18
100
AcDbEntity
  8
0
  6
Continuous
 62
     1
100
AcDbText
 10
244.9999998498661
 20
15.12499990750677
 30
0.0
 40
1.0
  1
-
 41
1.5
100
AcDbText
1001
PHOENIX7010
1002
{
1070
    62
1070
     1
1070
    41
1040
2.0
1002
}
  0
TEXT
  5
9FA
102
{ACAD_REACTORS
330
A0B
102
}
330
18
100
AcDbEntity
  8
0
  6
Continuous
 62
     1
100
AcDbText
 10
244.9999998498661
 20
13.87499990750677
 30
0.0
 40
1.0
  1
-
 41
1.5
100
AcDbText
1001
PHOENIX7010
1002
{
1070
    62
1070
     1
1070
    41
1040
2.0
1002
}
  0
TEXT
  5
9FB
102
{ACAD_REACTORS
330
A0B
102
}
330
18
100
AcDbEntity
  8
0
  6
Continuous
 62
     1
100
AcDbText
 10
244.9999998498661
 20
16.37499990750677
 30
0.0
 40
1.0
  1
-
 41
1.5
100
AcDbText
1001
PHOENIX7010
1002
{
1070
    62
1070
     1
1070
    41
1040
2.0
1002
}
  0
TEXT
  5
9FC
102
{ACAD_REACTORS
330
A0B
102
}
330
18
100
AcDbEntity
  8
0
  6
Continuous
 62
     1
100
AcDbText
 10
244.9999998498661
 20
17.62499990750677
 30
0.0
 40
1.0
  1
-
 41
1.5
100
AcDbText
1001
PHOENIX7010
1002
{
1070
    62
1070
     1
1070
    41
1040
2.0
1002
}
  0
TEXT
  5
9FD
102
{ACAD_REACTORS
330
A0B
102
}
330
18
100
AcDbEntity
  8
0
  6
Continuous
 62
     1
100
AcDbText
 10
244.9999998498661
 20
18.87499990750677
 30
0.0
 40
1.0
  1
-
 41
1.5
100
AcDbText
1001
PHOENIX7010
1002
{
1070
    62
1070
     1
1070
    41
1040
2.0
1002
}
  0
LINE
  5
9FE
102
{ACAD_REACTORS
330
A0B
102
}
330
18
100
AcDbEntity
  8
0
  6
Continuous
 62
     1
100
AcDbLine
 10
251.0
 20
24.0
 30
0.0
 11
251.0
 21
7.25
 31
0.0
1001
PHOENIX7010
1002
{
1070
    62
1070
     1
1070
    41
1040
2.0
1002
}
  0
LINE
  5
9FF
102
{ACAD_REACTORS
330
A0B
102
}
330
18
100
AcDbEntity
  8
0
  6
Continuous
 62
     1
100
AcDbLine
 10
244.5
 20
10.75
 30
0.0
 11
262.0
 21
10.75
 31
0.0
1001
PHOENIX7010
1002
{
1070
    62
1070
     1
1070
    41
1040
2.0
1002
}
  0
LINE
  5
A00
102
{ACAD_REACTORS
330
A0B
102
}
330
18
100
AcDbEntity
  8
0
  6
Continuous
 62
     5
100
AcDbLine
 10
294.5
 20
39.25
 30
0.0
 11
245.75
 21
39.25
 31
0.0
1001
PHOENIX7010
1002
{
1070
    62
1070
     5
1070
    41
1040
2.0
1002
}
  0
LINE
  5
A01
102
{ACAD_REACTORS
330
A0B
102
}
330
18
100
AcDbEntity
  8
0
  6
Continuous
 62
     5
100
AcDbLine
 10
294.5
 20
24.0
 30
0.0
 11
245.75
 21
24.0
 31
0.0
1001
PHOENIX7010
1002
{
1070
    62
1070
     5
1070
    41
1040
2.0
1002
}
  0
LINE
  5
A02
102
{ACAD_REACTORS
330
A0B
102
}
330
18
100
AcDbEntity
  8
0
  6
Continuous
 62
     5
100
AcDbLine
 10
244.5
 20
50.0
 30
0.0
 11
244.5
 21
2.5
 31
0.0
1001
PHOENIX7010
1002
{
1070
    62
1070
     5
1070
    41
1040
2.0
1002
}
  0
INSERT
  5
A03
102
{ACAD_REACTORS
330
A0B
102
}
330
18
100
AcDbEntity
  8
0
  6
Continuous
 62
     5
370
    35
100
AcDbBlockReference
  2
PH_GRPBLK
 10
244.5
 20
7.25
 30
0.0
 41
0.5
 42
0.5
 43
0.5
1001
PHOENIX7010
1002
{
1070
    41
1040
2.0
1002
}
  0
LWPOLYLINE
  5
A04
102
{ACAD_REACTORS
330
9C1
102
}
330
18
100
AcDbEntity
  8
0
  6
Continuous
 62
     7
 60
     1
370
    50
100
AcDbPolyline
 90
        5
 70
     1
 43
0.0
 10
290.7167374970127
 20
17.58226905699018
 10
287.3667374970128
 20
13.68226905699021
 10
293.3667374970127
 20
13.68226905699021
 10
293.3667374970127
 20
17.58226905699007
 10
290.7167374970127
 20
14.13226905699025
1001
PHOENIX7010
1002
{
1070
    41
1040
2.0
1002
}
  0
LWPOLYLINE
  5
A05
102
{ACAD_REACTORS
330
9C2
102
}
330
18
100
AcDbEntity
  8
0
  6
Continuous
 62
     7
 60
     1
370
    50
100
AcDbPolyline
 90
        3
 70
     1
 43
0.0
 10
286.9417374970128
 20
13.68226905699021
 10
286.9417374970128
 20
15.75726905699014
 10
289.0167374970129
 20
15.75726905699014
 42
2.414213562373094
1001
PHOENIX7010
1002
{
1070
    41
1040
2.0
1002
}
  0
LINE
  5
BBD
102
{ACAD_REACTORS
330
BCF
102
}
330
18
100
AcDbEntity
  8
0
  6
Continuous
 62
     1
370
    50
100
AcDbLine
 10
201.5
 20
0.5
 30
0.0
 11
201.5
 21
2.5
 31
0.0
1001
PHOENIX7010
1002
{
1070
    62
1070
     1
1070
    41
1040
2.0
1002
}
  0
LINE
  5
BBE
102
{ACAD_REACTORS
330
BCF
102
}
330
18
100
AcDbEntity
  8
0
  6
Continuous
 62
     3
370
    50
100
AcDbLine
 10
294.5
 20
207.5
 30
0.0
 11
294.5
 21
2.5
 31
0.0
1001
PHOENIX7010
1002
{
1070
    62
1070
     3
1070
    41
1040
2.0
1002
}
  0
LINE
  5
BBF
102
{ACAD_REACTORS
330
BCF
102
}
330
18
100
AcDbEntity
  8
0
  6
Continuous
 62
     3
370
    50
100
AcDbLine
 10
10.0
 20
207.5
 30
0.0
 11
294.5
 21
207.5
 31
0.0
1001
PHOENIX7010
1002
{
1070
    62
1070
     3
1070
    41
1040
2.0
1002
}
  0
LINE
  5
BC0
102
{ACAD_REACTORS
330
BCF
102
}
330
18
100
AcDbEntity
  8
0
  6
Continuous
 62
     1
370
    50
100
AcDbLine
 10
58.0
 20
2.5
 30
0.0
 11
58.0
 21
0.5
 31
0.0
1001
PHOENIX7010
1002
{
1070
    62
1070
     1
1070
    41
1040
2.0
1002
}
  0
LINE
  5
BC1
102
{ACAD_REACTORS
330
BCF
102
}
330
18
100
AcDbEntity
  8
0
  6
Continuous
 62
     1
370
    50
100
AcDbLine
 10
58.0
 20
209.5
 30
0.0
 11
58.0
 21
207.5
 31
0.0
1001
PHOENIX7010
1002
{
1070
    62
1070
     1
1070
    41
1040
2.0
1002
}
  0
LINE
  5
BC2
102
{ACAD_REACTORS
330
BCF
102
}
330
18
100
AcDbEntity
  8
0
  6
Continuous
 62
     1
370
    50
100
AcDbLine
 10
106.5
 20
2.5
 30
0.0
 11
106.5
 21
0.5
 31
0.0
1001
PHOENIX7010
1002
{
1070
    62
1070
     1
1070
    41
1040
2.0
1002
}
  0
LINE
  5
BC3
102
{ACAD_REACTORS
330
BCF
102
}
330
18
100
AcDbEntity
  8
0
  6
Continuous
 62
     1
370
    50
100
AcDbLine
 10
106.5
 20
209.5
 30
0.0
 11
106.5
 21
207.5
 31
0.0
1001
PHOENIX7010
1002
{
1070
    62
1070
     1
1070
    41
1040
2.0
1002
}
  0
LINE
  5
BC4
102
{ACAD_REACTORS
330
BCF
102
}
330
18
100
AcDbEntity
  8
0
  6
Continuous
 62
     1
370
    50
100
AcDbLine
 10
201.5
 20
209.5
 30
0.0
 11
201.5
 21
207.5
 31
0.0
1001
PHOENIX7010
1002
{
1070
    62
1070
     1
1070
    41
1040
2.0
1002
}
  0
LINE
  5
BC5
102
{ACAD_REACTORS
330
BCF
102
}
330
18
100
AcDbEntity
  8
0
  6
Continuous
 62
     3
370
    50
100
AcDbLine
 10
10.0
 20
2.5
 30
0.0
 11
10.0
 21
207.5
 31
0.0
1001
PHOENIX7010
1002
{
1070
    62
1070
     3
1070
    41
1040
2.0
1002
}
  0
LINE
  5
BC6
102
{ACAD_REACTORS
330
BCF
102
}
330
18
100
AcDbEntity
  8
0
  6
Continuous
 62
     3
370
    50
100
AcDbLine
 10
294.5
 20
2.5
 30
0.0
 11
10.0
 21
2.5
 31
0.0
1001
PHOENIX7010
1002
{
1070
    62
1070
     3
1070
    41
1040
2.0
1002
}
  0
LINE
  5
BC7
102
{ACAD_REACTORS
330
BCF
102
}
330
18
100
AcDbEntity
  8
0
  6
Continuous
 62
     1
370
    50
100
AcDbLine
 10
0.5
 20
0.5
 30
0.0
 11
0.5
 21
209.5
 31
0.0
1001
PHOENIX7010
1002
{
1070
    62
1070
     1
1070
    41
1040
2.0
1002
}
  0
LINE
  5
BC8
102
{ACAD_REACTORS
330
BCF
102
}
330
18
100
AcDbEntity
  8
0
  6
Continuous
 62
     1
370
    50
100
AcDbLine
 10
0.5
 20
209.5
 30
0.0
 11
296.5
 21
209.5
 31
0.0
1001
PHOENIX7010
1002
{
1070
    62
1070
     1
1070
    41
1040
2.0
1002
}
  0
LINE
  5
BC9
102
{ACAD_REACTORS
330
BCF
102
}
330
18
100
AcDbEntity
  8
0
  6
Continuous
 62
     1
370
    50
100
AcDbLine
 10
296.5
 20
209.5
 30
0.0
 11
296.5
 21
0.5
 31
0.0
1001
PHOENIX7010
1002
{
1070
    62
1070
     1
1070
    41
1040
2.0
1002
}
  0
LINE
  5
BCA
102
{ACAD_REACTORS
330
BCF
102
}
330
18
100
AcDbEntity
  8
0
  6
Continuous
 62
     1
370
    50
100
AcDbLine
 10
296.5
 20
0.5
 30
0.0
 11
0.5
 21
0.5
 31
0.0
1001
PHOENIX7010
1002
{
1070
    62
1070
     1
1070
    41
1040
2.0
1002
}
  0
LINE
  5
BCB
102
{ACAD_REACTORS
330
BCF
102
}
330
18
100
AcDbEntity
  8
0
  6
Continuous
 62
     1
370
    50
100
AcDbLine
 10
294.5
 20
148.5
 30
0.0
 11
296.5
 21
148.5
 31
0.0
1001
PHOENIX7010
1002
{
1070
    62
1070
     1
1070
    41
1040
2.0
1002
}
  0
MTEXT
  5
BCC
102
{ACAD_REACTORS
330
BCF
102
}
330
18
100
AcDbEntity
  8
0
  6
Continuous
 62
     7
370
    50
100
AcDbMText
 10
9.851243593205481
 20
27.69675603956671
 30
0.0
 40
1.0
 41
0.0
 71
     7
 72
     5
  1
{\T1.1;\C1;"Schutzvermerk nach DIN ISO 16016 beachten" \Q20;"Please pay attention to copyright note DIN ISO 16016"}
 11
0.0000000000000002
 21
1.0
 31
0.0
 73
     1
 44
1.0
1001
PHOENIX7010
1002
{
1070
    41
1040
2.0
1002
}
1001
ACAD
1000
MTEXTBEGIN
1070
    73
1070
     1
1070
    44
1040
1.0
1070
    74
1070
     0
1000
MTEXTEND
  0
INSERT
  5
BCD
102
{ACAD_REACTORS
330
BCF
102
}
330
18
100
AcDbEntity
  8
0
  6
Continuous
 62
     1
370
    50
100
AcDbBlockReference
  2
PH_GRPBLK
 10
201.5
 20
0.5
 30
0.0
 41
0.5
 42
0.5
 43
0.5
1001
PHOENIX7010
1002
{
1070
    41
1040
2.0
1002
}
  0
LINE
  5
CB5
330
18
100
AcDbEntity
  8
0
  6
Continuous
 62
     1
100
AcDbLine
 10
24.12048597006947
 20
13.27990789048113
 30
0.0
 11
84.31039205242417
 21
13.27990789048113
 31
0.0
1001
PHOENIX7010
1002
{
1070
    41
1040
2.0
1070
    62
1070
     1
1002
}
  0
LINE
  5
CB6
330
18
100
AcDbEntity
  8
0
  6
Continuous
 62
     1
100
AcDbLine
 10
24.12048597006947
 20
17.44490789048109
 30
0.0
 11
84.31039205242417
 21
17.44490789048109
 31
0.0
1001
PHOENIX7010
1002
{
1070
    41
1040
2.0
1070
    62
1070
     1
1002
}
  0
LINE
  5
CB7
330
18
100
AcDbEntity
  8
0
  6
Continuous
 62
     1
100
AcDbLine
 10
24.12048597006947
 20
21.60990789048105
 30
0.0
 11
84.31039205242417
 21
21.60990789048105
 31
0.0
1001
PHOENIX7010
1002
{
1070
    41
1040
2.0
1070
    62
1070
     1
1002
}
  0
MTEXT
  5
CB8
330
18
100
AcDbEntity
  8
0
  6
Continuous
 62
     5
100
AcDbMText
 10
25.4294115791331
 20
25.14642225335411
 30
0.0
 40
2.5
 41
43.29980783089957
 71
     1
 72
     5
  1
Modell\PFLU/M 00300\PFLU/M 00600
 73
     1
 44
1.0
1001
PHOENIX7010
1002
{
1070
    41
1040
2.0
1070
    62
1070
     5
1002
}
1001
ACAD
1000
MTEXTBEGIN
1070
    73
1070
     1
1070
    44
1040
1.0
1070
    74
1070
     0
1000
MTEXTEND
  0
MTEXT
  5
CB9
330
18
100
AcDbEntity
  8
0
  6
Continuous
 62
     5
100
AcDbMText
 10
59.68379453068951
 20
25.14642225335411
 30
0.0
 40
2.5
 41
27.5
 71
     1
 72
     5
  1
HE\P3\P6
 73
     1
 44
1.0
1001
PHOENIX7010
1002
{
1070
    41
1040
2.0
1070
    62
1070
     5
1002
}
1001
ACAD
1000
MTEXTBEGIN
1070
    73
1070
     1
1070
    44
1040
1.0
1070
    74
1070
     0
1000
MTEXTEND
  0
MTEXT
  5
CBA
330
18
100
AcDbEntity
  8
0
  6
Continuous
 62
     5
100
AcDbMText
 10
69.58881899353968
 20
25.14642225335411
 30
0.0
 40
2.5
 41
27.5
 71
     1
 72
     5
  1
H\P132,6\P265,9
 73
     1
 44
1.0
1001
PHOENIX7010
1002
{
1070
    41
1040
2.0
1070
    62
1070
     5
1002
}
1001
ACAD
1000
MTEXTBEGIN
1070
    73
1070
     1
1070
    44
1040
1.0
1070
    74
1070
     0
1000
MTEXTEND
  0
LINE
  5
CBB
330
18
100
AcDbEntity
  8
0
  6
Continuous
 62
     1
100
AcDbLine
 10
68.27989338447617
 20
13.27990789048113
 30
0.0
 11
68.27989338447617
 21
25.62783960331376
 31
0.0
1001
PHOENIX7010
1002
{
1070
    41
1040
2.0
1070
    62
1070
     1
1002
}
  0
LINE
  5
CBC
330
18
100
AcDbEntity
  8
0
  6
Continuous
 62
     1
100
AcDbLine
 10
56.15927193206847
 20
13.27990789048113
 30
0.0
 11
56.15927193206847
 21
25.62783960331376
 31
0.0
1001
PHOENIX7010
1002
{
1070
    41
1040
2.0
1070
    62
1070
     1
1002
}
  0
MTEXT
  5
CBD
330
18
100
AcDbEntity
  8
0
  6
Continuous
 62
     5
100
AcDbMText
 10
81.70944044594738
 20
25.14642225335411
 30
0.0
 40
2.5
 41
27.5
 71
     1
 72
     5
  1
n\P2\P5
 73
     1
 44
1.0
1001
PHOENIX7010
1002
{
1070
    41
1040
2.0
1002
}
1001
ACAD
1000
MTEXTBEGIN
1070
    73
1070
     1
1070
    44
1040
1.0
1070
    74
1070
     0
1000
MTEXTEND
  0
LINE
  5
CBE
330
18
100
AcDbEntity
  8
0
  6
Continuous
 62
     1
100
AcDbLine
 10
80.40051483688387
 20
13.27990789048113
 30
0.0
 11
80.40051483688387
 21
25.62783960331376
 31
0.0
1001
PHOENIX7010
1002
{
1070
    41
1040
2.0
1002
}
  0
PDFUNDERLAY
  5
F35
330
18
100
AcDbEntity
  8
0
  6
ACAD_ISO05W100
 62
     3
 92
        8
310
0800000000000000
370
    70
100
AcDbUnderlayReference
340
F34
 10
162.1838953964746
 20
86.36548144119421
 30
0.0
 41
10.0
 42
10.0
 43
10.0
281
   100
282
     0
  0
ENDSEC
  0
SECTION
  2
OBJECTS
  0
DICTIONARY
  5
C
330
0
100
AcDbDictionary
281
     1
  3
ACAD_COLOR
350
66E
  3
ACAD_GROUP
350
D
  3
ACAD_LAYOUT
350
685
  3
ACAD_MATERIAL
350
641
  3
ACAD_MLEADERSTYLE
350
683
  3
ACAD_MLINESTYLE
350
1B
  3
ACAD_PDFDEFINITIONS
350
BD1
  3
ACAD_PLOTSETTINGS
350
686
  3
ACAD_PLOTSTYLENAME
350
63F
  3
ACAD_SCALELIST
350
671
  3
ACAD_TABLESTYLE
350
66F
  3
ACAD_VISUALSTYLE
350
65A
  3
ACDB_RECOMPOSE_DATA
350
FDE
  3
AcDbVariableDictionary
350
C96
  3
AEC_PROPERTY_SET_DEFS
350
9AD
  3
ASE_INDEX_DICTIONARY
350
E42
  3
DWGPROPS
350
FDF
  3
PH_OBJREACTOR_DICT
350
1DB
  3
PH_ROOTGROUP_DICT
350
1D1
  3
PH_VARS
350
1D0
  0
DICTIONARY
  5
C65
330
8
100
AcDbDictionary
280
     1
281
     1
  0
DICTIONARY
  5
9BF
330
2
100
AcDbDictionary
280
     1
281
     1
  3
ACAD_LAYERSTATES
360
9C0
  0
DICTIONARY
  5
68B
330
E
100
AcDbDictionary
280
     1
281
     1
  3
ADSK_XREC_LAYER_RECONCILED
360
68C
  0
DICTIONARY
  5
68D
330
21
100
AcDbDictionary
280
     1
281
     1
  3
ADSK_XREC_LAYER_RECONCILED
360
68E
  0
DICTIONARY
  5
68F
330
38
100
AcDbDictionary
280
     1
281
     1
  3
ADSK_XREC_LAYER_RECONCILED
360
690
  0
DICTIONARY
  5
691
330
1F0
100
AcDbDictionary
280
     1
281
     1
  3
ADSK_XREC_LAYER_RECONCILED
360
692
  0
DICTIONARY
  5
FDC
330
9CA
100
AcDbDictionary
280
     1
281
     1
  3
ACAD_MTEXT_2008_RT
360
FDD
  0
DICTIONARY
  5
66E
102
{ACAD_REACTORS
330
C
102
}
330
C
100
AcDbDictionary
281
     1
  0
DICTIONARY
  5
D
102
{ACAD_REACTORS
330
C
102
}
330
C
100
AcDbDictionary
281
     1
  3
$$$$$$$$_BZA45776
350
116
  3
$$$$$$$$_RAHMEN
350
12F
  3
*A1
350
333
  3
*A10
350
4DF
  3
*A11
350
4E0
  3
*A12
350
32D
  3
*A13
350
32C
  3
*A14
350
32E
  3
*A15
350
330
  3
*A16
350
32F
  3
*A17
350
331
  3
*A18
350
334
  3
*A19
350
332
  3
*A2
350
4D7
  3
*A20
350
335
  3
*A3
350
4D8
  3
*A4
350
4DA
  3
*A5
350
4D9
  3
*A6
350
4DB
  3
*A7
350
4DD
  3
*A8
350
4DC
  3
*A9
350
4DE
  3
_GF_XXXX_2KOPF
350
1C8
  3
_GF_XXXX_BZA45776
350
CD
  3
_GF_XXXX_RAHMEN
350
170
  3
_MD_XXXX_BZA45776
350
11F
  3
_VV_XXXX_RAHMEN
350
12B
  3
_ZU_XXXX_RAHMEN
350
19C
  3
DINA4H_BZA45776
350
20
  0
DICTIONARY
  5
685
102
{ACAD_REACTORS
330
C
102
}
330
C
100
AcDbDictionary
281
     1
  3
Layout1
350
688
  3
Model
350
687
  0
DICTIONARY
  5
641
102
{ACAD_REACTORS
330
C
102
}
330
C
100
AcDbDictionary
281
     1
  3
ByBlock
350
64A
  3
ByLayer
350
642
  3
Global
350
652
  0
DICTIONARY
  5
683
102
{ACAD_REACTORS
330
C
102
}
330
C
100
AcDbDictionary
281
     1
  3
Standard
350
684
  0
DICTIONARY
  5
1B
102
{ACAD_REACTORS
330
C
102
}
330
C
100
AcDbDictionary
281
     1
  3
STANDARD
350
1C
  0
DICTIONARY
  5
BD1
102
{ACAD_REACTORS
330
C
102
}
330
C
100
AcDbDictionary
281
     1
  3
2901859 - 1
350
F34
  3
86700033_FLU_M_00300 - 1
350
BD3
  0
DICTIONARY
  5
686
102
{ACAD_REACTORS
330
C
102
}
330
C
100
AcDbDictionary
281
     1
  0
ACDBDICTIONARYWDFLT
  5
63F
102
{ACAD_REACTORS
330
C
102
}
330
C
100
AcDbDictionary
281
     1
  3
Normal
350
640
100
AcDbDictionaryWithDefault
340
640
  0
DICTIONARY
  5
671
102
{ACAD_REACTORS
330
C
102
}
330
C
100
AcDbDictionary
281
     1
  3
A0
350
672
  3
A1
350
673
  3
A2
350
674
  3
A3
350
675
  3
A4
350
676
  3
A5
350
677
  3
A6
350
678
  3
A7
350
679
  3
A8
350
67A
  3
A9
350
67B
  3
B0
350
67C
  3
B1
350
67D
  3
B2
350
67E
  3
B3
350
67F
  3
B4
350
680
  3
B5
350
681
  3
B6
350
682
  0
DICTIONARY
  5
66F
102
{ACAD_REACTORS
330
C
102
}
330
C
100
AcDbDictionary
281
     1
  3
Standard
350
670
  0
DICTIONARY
  5
65A
102
{ACAD_REACTORS
330
C
102
}
330
C
100
AcDbDictionary
281
     1
  3
2dWireframe
350
660
  3
3D Hidden
350
662
  3
3dWireframe
350
661
  3
Basic
350
65F
  3
Brighten
350
666
  3
ColorChange
350
66A
  3
Conceptual
350
663
  3
Dim
350
665
  3
EdgeColorOff
350
66D
  3
Facepattern
350
669
  3
Flat
350
65B
  3
FlatWithEdges
350
65C
  3
Gouraud
350
65D
  3
GouraudWithEdges
350
65E
  3
JitterOff
350
66B
  3
Linepattern
350
668
  3
OverhangOff
350
66C
  3
Realistic
350
664
  3
Thicken
350
667
  0
XRECORD
  5
FDE
102
{ACAD_REACTORS
330
C
102
}
330
C
100
AcDbXrecord
280
     1
 90
        1
330
670
330
9CA
  0
DICTIONARY
  5
C96
102
{ACAD_REACTORS
330
C
102
}
330
C
100
AcDbDictionary
281
     1
  3
CANNOSCALE
350
C99
  3
CMLEADERSTYLE
350
C98
  3
CTABLESTYLE
350
C97
  3
DIMASSOC
350
C9C
  3
INDEXCTL
350
C9B
  3
SORTENTS
350
C9A
  3
XCLIPFRAME
350
FDA
  0
DICTIONARY
  5
9AD
102
{ACAD_REACTORS
330
C
102
}
330
C
100
AcDbDictionary
281
     1
  0
DICTIONARY
  5
E42
102
{ACAD_REACTORS
330
C
102
}
330
C
100
AcDbDictionary
281
     1
  3
ASEBlockHierarchyIndexRecord
350
E44
1001
DCO15
1040
1810978466.247
  0
XRECORD
  5
FDF
102
{ACAD_REACTORS
330
C
102
}
330
C
100
AcDbXrecord
280
     1
  1
DWGPROPS COOKIE
  2

  3

  4

  6

  7

  8
nowak
  9

300
=
301
=
302
=
303
=
304
=
305
=
306
=
307
=
308
=
309
=
 40
0.0476431018518519
 41
2451306.623786458
 42
2456784.486806053
  1

 90
        0
  0
DICTIONARY
  5
1DB
102
{ACAD_REACTORS
330
C
102
}
330
C
100
AcDbDictionary
281
     1
  0
DICTIONARY
  5
1D1
102
{ACAD_REACTORS
330
C
102
}
330
C
100
AcDbDictionary
281
     1
  3
$PH$AAAFCandP
350
A06
  3
$PH$AAAH2H
350
BCE
  0
PH_VARS
  5
1D0
102
{ACAD_REACTORS
330
C
102
}
330
C
  0
DICTIONARY
  5
9C0
102
{ACAD_REACTORS
330
9BF
102
}
330
9BF
100
AcDbDictionary
281
     1
  0
XRECORD
  5
68C
102
{ACAD_REACTORS
330
68B
102
}
330
68B
100
AcDbXrecord
280
     1
290
     1
  0
XRECORD
  5
68E
102
{ACAD_REACTORS
330
68D
102
}
330
68D
100
AcDbXrecord
280
     1
290
     1
  0
XRECORD
  5
690
102
{ACAD_REACTORS
330
68F
102
}
330
68F
100
AcDbXrecord
280
     1
290
     1
  0
XRECORD
  5
692
102
{ACAD_REACTORS
330
691
102
}
330
691
100
AcDbXrecord
280
     1
290
     1
  0
XRECORD
  5
FDD
102
{ACAD_REACTORS
330
FDC
102
}
330
FDC
100
AcDbXrecord
280
     1
 40
46997.0
  1
\pxql;{\fArial|b1|i0|c0|p34;\W1.1;BOPLA}
  0
GROUP
  5
116
102
{ACAD_REACTORS
330
D
102
}
330
D
100
AcDbGroup
300
V11:16928:********
 70
     0
 71
     1
  0
GROUP
  5
12F
102
{ACAD_REACTORS
330
D
102
}
330
D
100
AcDbGroup
300
V11:16941:********
 70
     0
 71
     1
  0
GROUP
  5
333
102
{ACAD_REACTORS
330
D
102
}
330
D
100
AcDbGroup
300
V11:8656:_ZU_XXXX
 70
     3
 71
     1
  0
GROUP
  5
4DF
102
{ACAD_REACTORS
330
D
102
}
330
D
100
AcDbGroup
300
V11:12199:_ZU_XXXX
 70
     3
 71
     1
  0
GROUP
  5
4E0
102
{ACAD_REACTORS
330
D
102
}
330
D
100
AcDbGroup
300
V11:12114:DINA4H
 70
     3
 71
     1
  0
GROUP
  5
32D
102
{ACAD_REACTORS
330
D
102
}
330
D
100
AcDbGroup
300
V11:8673:********
 70
     3
 71
     1
  0
GROUP
  5
32C
102
{ACAD_REACTORS
330
D
102
}
330
D
100
AcDbGroup
300
V11:8654:********
 70
     3
 71
     1
  0
GROUP
  5
32E
102
{ACAD_REACTORS
330
D
102
}
330
D
100
AcDbGroup
300
V11:8686:_GF_XXXX
 70
     3
 71
     1
  0
GROUP
  5
330
102
{ACAD_REACTORS
330
D
102
}
330
D
100
AcDbGroup
300
V11:8679:_GF_XXXX
 70
     3
 71
     1
  0
GROUP
  5
32F
102
{ACAD_REACTORS
330
D
102
}
330
D
100
AcDbGroup
300
V11:8648:_GF_XXXX
 70
     3
 71
     1
  0
GROUP
  5
331
102
{ACAD_REACTORS
330
D
102
}
330
D
100
AcDbGroup
300
V11:8661:_MD_XXXX
 70
     3
 71
     1
  0
GROUP
  5
334
102
{ACAD_REACTORS
330
D
102
}
330
D
100
AcDbGroup
300
V11:8683:_ZU_XXXX
 70
     3
 71
     1
  0
GROUP
  5
332
102
{ACAD_REACTORS
330
D
102
}
330
D
100
AcDbGroup
300
V11:8667:_VV_XXXX
 70
     3
 71
     1
  0
GROUP
  5
4D7
102
{ACAD_REACTORS
330
D
102
}
330
D
100
AcDbGroup
300
V11:12168:********
 70
     3
 71
     1
340
543
340
544
340
545
340
546
340
547
340
548
340
549
340
54A
340
55F
340
560
340
561
340
562
  0
GROUP
  5
335
102
{ACAD_REACTORS
330
D
102
}
330
D
100
AcDbGroup
300
V11:8588:DINA4H
 70
     3
 71
     1
  0
GROUP
  5
4D8
102
{ACAD_REACTORS
330
D
102
}
330
D
100
AcDbGroup
300
V11:12189:********
 70
     3
 71
     1
  0
GROUP
  5
4DA
102
{ACAD_REACTORS
330
D
102
}
330
D
100
AcDbGroup
300
V11:12164:_GF_XXXX
 70
     3
 71
     1
340
543
340
544
340
545
340
546
340
547
340
548
340
549
340
54A
340
55F
340
560
340
561
340
562
340
593
340
594
340
595
340
596
340
597
340
598
340
599
340
59A
  0
GROUP
  5
4D9
102
{ACAD_REACTORS
330
D
102
}
330
D
100
AcDbGroup
300
V11:12202:_GF_XXXX
 70
     3
 71
     1
  0
GROUP
  5
4DB
102
{ACAD_REACTORS
330
D
102
}
330
D
100
AcDbGroup
300
V11:12195:_GF_XXXX
 70
     3
 71
     1
  0
GROUP
  5
4DD
102
{ACAD_REACTORS
330
D
102
}
330
D
100
AcDbGroup
300
V11:12183:_VV_XXXX
 70
     3
 71
     1
  0
GROUP
  5
4DC
102
{ACAD_REACTORS
330
D
102
}
330
D
100
AcDbGroup
300
V11:12177:_MD_XXXX
 70
     3
 71
     1
340
593
340
594
340
595
340
596
340
597
340
598
340
599
340
59A
  0
GROUP
  5
4DE
102
{ACAD_REACTORS
330
D
102
}
330
D
100
AcDbGroup
300
V11:12170:_ZU_XXXX
 70
     3
 71
     1
340
55F
340
560
340
561
340
562
  0
GROUP
  5
1C8
102
{ACAD_REACTORS
330
D
102
}
330
D
100
AcDbGroup
300
V11:16954:_GF_XXXX
 70
     0
 71
     1
  0
GROUP
  5
CD
102
{ACAD_REACTORS
330
D
102
}
330
D
100
AcDbGroup
300
V11:16916:_GF_XXXX
 70
     0
 71
     1
  0
GROUP
  5
170
102
{ACAD_REACTORS
330
D
102
}
330
D
100
AcDbGroup
300
V11:16947:_GF_XXXX
 70
     0
 71
     1
  0
GROUP
  5
11F
102
{ACAD_REACTORS
330
D
102
}
330
D
100
AcDbGroup
300
V11:16929:_MD_XXXX
 70
     0
 71
     1
  0
GROUP
  5
12B
102
{ACAD_REACTORS
330
D
102
}
330
D
100
AcDbGroup
300
V11:16935:_VV_XXXX
 70
     0
 71
     1
  0
GROUP
  5
19C
102
{ACAD_REACTORS
330
D
102
}
330
D
100
AcDbGroup
300
V11:16951:_ZU_XXXX
 70
     0
 71
     1
  0
GROUP
  5
20
102
{ACAD_REACTORS
330
D
102
}
330
D
100
AcDbGroup
300
V11:16896:DINA4H
 70
     0
 71
     1
  0
LAYOUT
  5
688
102
{ACAD_XDICTIONARY
360
100C
102
}
102
{ACAD_REACTORS
330
685
102
}
330
685
100
AcDbPlotSettings
  1

  2
RICOH Aficio MP W2400 RPCS
  4

  6

 40
0.0
 41
0.0
 42
0.0
 43
0.0
 44
0.0
 45
0.0
 46
0.0
 47
0.0
 48
0.0
 49
0.0
140
0.0
141
0.0
142
1.0
143
1.0
 70
   688
 72
     0
 73
     0
 74
     5
  7
HP_Farbe_Dünn.ctb
 75
    16
147
1.0
148
0.0
149
0.0
100
AcDbLayout
  1
Layout1
 70
     1
 71
     1
 10
0.0
 20
0.0
 11
420.0
 21
297.0
 12
0.0
 22
0.0
 32
0.0
 14
1.000000000000000E+20
 24
1.000000000000000E+20
 34
1.000000000000000E+20
 15
-1.000000000000000E+20
 25
-1.000000000000000E+20
 35
-1.000000000000000E+20
146
0.0
 13
0.0
 23
0.0
 33
0.0
 16
1.0
 26
0.0
 36
0.0
 17
0.0
 27
1.0
 37
0.0
 76
     0
330
15
  0
LAYOUT
  5
687
102
{ACAD_XDICTIONARY
360
100A
102
}
102
{ACAD_REACTORS
330
685
102
}
330
685
100
AcDbPlotSettings
  1

  2
RICOH Aficio MP W2400 RPCS
  4
A4
  6

 40
5.027082920074462
 41
5.027099609375
 42
5.027069091796875
 43
5.027069091796875
 44
209.9733276367187
 45
296.9259948730469
 46
0.0
 47
0.0
 48
0.0
 49
0.0
140
0.0
141
0.0
142
1.0
143
1.299568392277931
 70
 11952
 72
     1
 73
     1
 74
     0
  7
HP_Farbe_Dünn.ctb
 75
     0
147
0.769486243234312
148
37.90477896400887
149
0.2265353418308251
100
AcDbLayout
  1
Model
 70
     1
 71
     0
 10
0.0
 20
0.0
 11
12.0
 21
9.0
 12
0.0
 22
0.0
 32
0.0
 14
0.0
 24
0.0
 34
0.0
 15
0.0
 25
0.0
 35
0.0
146
0.0
 13
0.0
 23
0.0
 33
0.0
 16
1.0
 26
0.0
 36
0.0
 17
0.0
 27
1.0
 37
0.0
 76
     0
330
18
331
63D
1001
ACAD_PSEXT
1000
RICOH Aficio MP W2400 RPCS
1000
RICOH Aficio MP W2400 RPCS
1000
192.168.49.64
1000

1070
     0
  0
MATERIAL
  5
64A
102
{ACAD_XDICTIONARY
360
64B
102
}
102
{ACAD_REACTORS
330
641
102
}
330
641
100
AcDbMaterial
  1
ByBlock
 72
     0
 43
0.0208333333333333
 43
0.0
 43
0.0
 43
0.0
 43
0.0
 43
0.0208333333333333
 43
0.0
 43
0.0
 43
0.0
 43
0.0
 43
1.0
 43
0.0
 43
0.0
 43
0.0
 43
0.0
 43
1.0
 77
     0
 47
0.0208333333333333
 47
0.0
 47
0.0
 47
0.0
 47
0.0
 47
0.0208333333333333
 47
0.0
 47
0.0
 47
0.0
 47
0.0
 47
1.0
 47
0.0
 47
0.0
 47
0.0
 47
0.0
 47
1.0
171
     0
 49
0.0208333333333333
 49
0.0
 49
0.0
 49
0.0
 49
0.0
 49
0.0208333333333333
 49
0.0
 49
0.0
 49
0.0
 49
0.0
 49
1.0
 49
0.0
 49
0.0
 49
0.0
 49
0.0
 49
1.0
175
     0
142
0.0208333333333333
142
0.0
142
0.0
142
0.0
142
0.0
142
0.0208333333333333
142
0.0
142
0.0
142
0.0
142
0.0
142
1.0
142
0.0
142
0.0
142
0.0
142
0.0
142
1.0
179
     0
144
0.0208333333333333
144
0.0
144
0.0
144
0.0
144
0.0
144
0.0208333333333333
144
0.0
144
0.0
144
0.0
144
0.0
144
1.0
144
0.0
144
0.0
144
0.0
144
0.0
144
1.0
147
0.0208333333333333
147
0.0
147
0.0
147
0.0
147
0.0
147
0.0208333333333333
147
0.0
147
0.0
147
0.0
147
0.0
147
1.0
147
0.0
147
0.0
147
0.0
147
0.0
147
1.0
  0
MATERIAL
  5
642
102
{ACAD_XDICTIONARY
360
643
102
}
102
{ACAD_REACTORS
330
641
102
}
330
641
100
AcDbMaterial
  1
ByLayer
 72
     0
 43
0.0208333333333333
 43
0.0
 43
0.0
 43
0.0
 43
0.0
 43
0.0208333333333333
 43
0.0
 43
0.0
 43
0.0
 43
0.0
 43
1.0
 43
0.0
 43
0.0
 43
0.0
 43
0.0
 43
1.0
 77
     0
 47
0.0208333333333333
 47
0.0
 47
0.0
 47
0.0
 47
0.0
 47
0.0208333333333333
 47
0.0
 47
0.0
 47
0.0
 47
0.0
 47
1.0
 47
0.0
 47
0.0
 47
0.0
 47
0.0
 47
1.0
171
     0
 49
0.0208333333333333
 49
0.0
 49
0.0
 49
0.0
 49
0.0
 49
0.0208333333333333
 49
0.0
 49
0.0
 49
0.0
 49
0.0
 49
1.0
 49
0.0
 49
0.0
 49
0.0
 49
0.0
 49
1.0
175
     0
142
0.0208333333333333
142
0.0
142
0.0
142
0.0
142
0.0
142
0.0208333333333333
142
0.0
142
0.0
142
0.0
142
0.0
142
1.0
142
0.0
142
0.0
142
0.0
142
0.0
142
1.0
179
     0
144
0.0208333333333333
144
0.0
144
0.0
144
0.0
144
0.0
144
0.0208333333333333
144
0.0
144
0.0
144
0.0
144
0.0
144
1.0
144
0.0
144
0.0
144
0.0
144
0.0
144
1.0
147
0.0208333333333333
147
0.0
147
0.0
147
0.0
147
0.0
147
0.0208333333333333
147
0.0
147
0.0
147
0.0
147
0.0
147
1.0
147
0.0
147
0.0
147
0.0
147
0.0
147
1.0
  0
MATERIAL
  5
652
102
{ACAD_XDICTIONARY
360
653
102
}
102
{ACAD_REACTORS
330
641
102
}
330
641
100
AcDbMaterial
  1
Global
 72
     0
 43
0.0208333333333333
 43
0.0
 43
0.0
 43
0.0
 43
0.0
 43
0.0208333333333333
 43
0.0
 43
0.0
 43
0.0
 43
0.0
 43
1.0
 43
0.0
 43
0.0
 43
0.0
 43
0.0
 43
1.0
 77
     0
 47
0.0208333333333333
 47
0.0
 47
0.0
 47
0.0
 47
0.0
 47
0.0208333333333333
 47
0.0
 47
0.0
 47
0.0
 47
0.0
 47
1.0
 47
0.0
 47
0.0
 47
0.0
 47
0.0
 47
1.0
171
     0
 49
0.0208333333333333
 49
0.0
 49
0.0
 49
0.0
 49
0.0
 49
0.0208333333333333
 49
0.0
 49
0.0
 49
0.0
 49
0.0
 49
1.0
 49
0.0
 49
0.0
 49
0.0
 49
0.0
 49
1.0
175
     0
142
0.0208333333333333
142
0.0
142
0.0
142
0.0
142
0.0
142
0.0208333333333333
142
0.0
142
0.0
142
0.0
142
0.0
142
1.0
142
0.0
142
0.0
142
0.0
142
0.0
142
1.0
179
     0
144
0.0208333333333333
144
0.0
144
0.0
144
0.0
144
0.0
144
0.0208333333333333
144
0.0
144
0.0
144
0.0
144
0.0
144
1.0
144
0.0
144
0.0
144
0.0
144
0.0
144
1.0
147
0.0208333333333333
147
0.0
147
0.0
147
0.0
147
0.0
147
0.0208333333333333
147
0.0
147
0.0
147
0.0
147
0.0
147
1.0
147
0.0
147
0.0
147
0.0
147
0.0
147
1.0
  0
MLEADERSTYLE
  5
684
102
{ACAD_REACTORS
330
683
102
}
330
683
100
AcDbMLeaderStyle
170
     2
171
     1
172
     0
 90
        2
 40
0.0
 41
0.0
173
     1
 91
-1056964608
340
12
 92
       -2
290
     1
 42
2.0
291
     1
 43
0.36
  3
Standard
 44
4.0
300

342
F
174
     1
178
     6
175
     1
176
     0
 93
-1056964608
 45
4.0
292
     0
297
     0
 46
4.0
 94
-1056964608
 47
1.0
 49
1.0
140
1.0
293
     1
141
0.0
294
     1
177
     0
142
1.0
295
     0
296
     0
143
0.125
1001
ACAD_MLEADERVER
1070
     2
  0
MLINESTYLE
  5
1C
102
{ACAD_REACTORS
330
1B
102
}
330
1B
100
AcDbMlineStyle
  2
STANDARD
 70
     0
  3

 62
   256
 51
90.0
 52
90.0
 71
     2
 49
0.5
 62
   256
  6
BYLAYER
 49
-0.5
 62
   256
  6
BYLAYER
  0
PDFDEFINITION
  5
F34
102
{ACAD_REACTORS
330
BD1
330
F35
102
}
330
BD1
100
AcDbUnderlayDefinition
  1
F:\User\Daten\DWG\nc2\nc29\2901859.pdf
  2
1
  0
PDFDEFINITION
  5
BD3
102
{ACAD_REACTORS
330
BD1
102
}
330
BD1
100
AcDbUnderlayDefinition
  1
F:\User\Daten\DWG\Anw\RN\NEUE KATALOGZG\Interzoll Modul\NEUE NC2-KatalogZG\86700033_FLU_M_00300.pdf
  2
1
  0
ACDBPLACEHOLDER
  5
640
102
{ACAD_REACTORS
330
63F
102
}
330
63F
  0
SCALE
  5
672
102
{ACAD_REACTORS
330
671
102
}
330
671
100
AcDbScale
 70
     0
300
1:1
140
1.0
141
1.0
290
     1
  0
SCALE
  5
673
102
{ACAD_REACTORS
330
671
102
}
330
671
100
AcDbScale
 70
     0
300
1:2
140
1.0
141
2.0
290
     0
  0
SCALE
  5
674
102
{ACAD_REACTORS
330
671
102
}
330
671
100
AcDbScale
 70
     0
300
1:4
140
1.0
141
4.0
290
     0
  0
SCALE
  5
675
102
{ACAD_REACTORS
330
671
102
}
330
671
100
AcDbScale
 70
     0
300
1:5
140
1.0
141
5.0
290
     0
  0
SCALE
  5
676
102
{ACAD_REACTORS
330
671
102
}
330
671
100
AcDbScale
 70
     0
300
1:8
140
1.0
141
8.0
290
     0
  0
SCALE
  5
677
102
{ACAD_REACTORS
330
671
102
}
330
671
100
AcDbScale
 70
     0
300
1:10
140
1.0
141
10.0
290
     0
  0
SCALE
  5
678
102
{ACAD_REACTORS
330
671
102
}
330
671
100
AcDbScale
 70
     0
300
1:16
140
1.0
141
16.0
290
     0
  0
SCALE
  5
679
102
{ACAD_REACTORS
330
671
102
}
330
671
100
AcDbScale
 70
     0
300
1:20
140
1.0
141
20.0
290
     0
  0
SCALE
  5
67A
102
{ACAD_REACTORS
330
671
102
}
330
671
100
AcDbScale
 70
     0
300
1:30
140
1.0
141
30.0
290
     0
  0
SCALE
  5
67B
102
{ACAD_REACTORS
330
671
102
}
330
671
100
AcDbScale
 70
     0
300
1:40
140
1.0
141
40.0
290
     0
  0
SCALE
  5
67C
102
{ACAD_REACTORS
330
671
102
}
330
671
100
AcDbScale
 70
     0
300
1:50
140
1.0
141
50.0
290
     0
  0
SCALE
  5
67D
102
{ACAD_REACTORS
330
671
102
}
330
671
100
AcDbScale
 70
     0
300
1:100
140
1.0
141
100.0
290
     0
  0
SCALE
  5
67E
102
{ACAD_REACTORS
330
671
102
}
330
671
100
AcDbScale
 70
     0
300
2:1
140
2.0
141
1.0
290
     0
  0
SCALE
  5
67F
102
{ACAD_REACTORS
330
671
102
}
330
671
100
AcDbScale
 70
     0
300
4:1
140
4.0
141
1.0
290
     0
  0
SCALE
  5
680
102
{ACAD_REACTORS
330
671
102
}
330
671
100
AcDbScale
 70
     0
300
8:1
140
8.0
141
1.0
290
     0
  0
SCALE
  5
681
102
{ACAD_REACTORS
330
671
102
}
330
671
100
AcDbScale
 70
     0
300
10:1
140
10.0
141
1.0
290
     0
  0
SCALE
  5
682
102
{ACAD_REACTORS
330
671
102
}
330
671
100
AcDbScale
 70
     0
300
100:1
140
100.0
141
1.0
290
     0
  0
TABLESTYLE
  5
670
102
{ACAD_XDICTIONARY
360
C5F
102
}
102
{ACAD_REACTORS
330
66F
102
}
330
66F
100
AcDbTableStyle
  3
Standard
 70
     0
 71
     0
 40
1.5
 41
1.5
280
     0
281
     0
  7
STANDARD
140
4.5
170
     2
 62
     0
 63
     7
283
     0
274
    -2
284
     1
 64
     0
275
    -2
285
     1
 65
     0
276
    -2
286
     1
 66
     0
277
    -2
287
     1
 67
     0
278
    -2
288
     1
 68
     0
279
    -2
289
     1
 69
     0
  7
STANDARD
140
6.0
170
     5
 62
     0
 63
     7
283
     0
274
    -2
284
     1
 64
     0
275
    -2
285
     1
 65
     0
276
    -2
286
     1
 66
     0
277
    -2
287
     1
 67
     0
278
    -2
288
     1
 68
     0
279
    -2
289
     1
 69
     0
  7
STANDARD
140
4.5
170
     5
 62
     0
 63
     7
283
     0
274
    -2
284
     1
 64
     0
275
    -2
285
     1
 65
     0
276
    -2
286
     1
 66
     0
277
    -2
287
     1
 67
     0
278
    -2
288
     1
 68
     0
279
    -2
289
     1
 69
     0
  0
VISUALSTYLE
  5
660
102
{ACAD_XDICTIONARY
360
FED
102
}
102
{ACAD_REACTORS
330
65A
102
}
330
65A
100
AcDbVisualStyle
  2
2dWireframe
 70
     4
 71
     0
 72
     2
 73
     0
 90
        0
 40
-0.6
 41
-30.0
 62
     5
 63
     7
 74
     1
 91
        4
 64
     7
 65
   257
 75
     1
175
     1
 42
1.0
 92
        0
 66
   257
 43
1.0
 76
     1
 77
     6
 78
     2
 67
     7
 79
     5
170
     0
171
     0
290
     0
174
     0
 93
        1
 44
0.0
173
     0
291
     0
 45
0.0
1001
ACAD
1000
AcDbSavedByObjectVersion
1070
     0
  0
VISUALSTYLE
  5
662
102
{ACAD_XDICTIONARY
360
FF1
102
}
102
{ACAD_REACTORS
330
65A
102
}
330
65A
100
AcDbVisualStyle
  2
3D Hidden
 70
     6
 71
     1
 72
     2
 73
     2
 90
        0
 40
-0.6
 41
-30.0
 62
     5
 63
     7
 74
     2
 91
        2
 64
     7
 65
   257
 75
     2
175
     1
 42
179.0
 92
        0
 66
   257
 43
1.0
 76
     1
 77
     6
 78
     2
 67
     7
 79
     3
170
     0
171
     0
290
     0
174
     0
 93
        1
 44
0.0
173
     0
291
     0
 45
0.0
1001
ACAD
1000
AcDbSavedByObjectVersion
1070
     0
  0
VISUALSTYLE
  5
661
102
{ACAD_XDICTIONARY
360
FEF
102
}
102
{ACAD_REACTORS
330
65A
102
}
330
65A
100
AcDbVisualStyle
  2
3dWireframe
 70
     5
 71
     0
 72
     2
 73
     0
 90
        0
 40
-0.6
 41
-30.0
 62
     5
 63
     7
 74
     1
 91
        4
 64
     7
 65
   257
 75
     1
175
     1
 42
1.0
 92
        0
 66
   257
 43
1.0
 76
     1
 77
     6
 78
     2
 67
     7
 79
     5
170
     0
171
     0
290
     0
174
     0
 93
        1
 44
0.0
173
     0
291
     0
 45
0.0
1001
ACAD
1000
AcDbSavedByObjectVersion
1070
     0
  0
VISUALSTYLE
  5
65F
102
{ACAD_XDICTIONARY
360
FEB
102
}
102
{ACAD_REACTORS
330
65A
102
}
330
65A
100
AcDbVisualStyle
  2
Basic
 70
     7
 71
     1
 72
     0
 73
     1
 90
        0
 40
-0.6
 41
-30.0
 62
     5
 63
     7
 74
     0
 91
        4
 64
     7
 65
   257
 75
     1
175
     1
 42
1.0
 92
        8
 66
     7
 43
1.0
 76
     1
 77
     6
 78
     2
 67
     7
 79
     5
170
     0
171
     0
290
     0
174
     0
 93
        1
 44
0.0
173
     0
291
     1
 45
0.0
1001
ACAD
1000
AcDbSavedByObjectVersion
1070
     0
  0
VISUALSTYLE
  5
666
102
{ACAD_XDICTIONARY
360
FF9
102
}
102
{ACAD_REACTORS
330
65A
102
}
330
65A
100
AcDbVisualStyle
  2
Brighten
 70
    12
 71
     2
 72
     2
 73
     0
 90
        0
 40
-0.6
 41
-30.0
 62
     5
 63
     7
 74
     1
 91
        4
 64
     7
 65
   257
 75
     1
175
     1
 42
1.0
 92
        8
 66
     7
 43
1.0
 76
     1
 77
     6
 78
     2
 67
     7
 79
     5
170
     0
171
     0
290
     0
174
     0
 93
        1
 44
50.0
173
     0
291
     1
 45
0.0
1001
ACAD
1000
AcDbSavedByObjectVersion
1070
     0
  0
VISUALSTYLE
  5
66A
102
{ACAD_XDICTIONARY
360
1001
102
}
102
{ACAD_REACTORS
330
65A
102
}
330
65A
100
AcDbVisualStyle
  2
ColorChange
 70
    16
 71
     2
 72
     2
 73
     3
 90
        0
 40
-0.6
 41
-30.0
 62
     5
 63
     8
 74
     1
 91
        4
 64
     7
 65
   257
 75
     1
175
     1
 42
1.0
 92
        8
 66
     8
 43
1.0
 76
     1
 77
     6
 78
     2
 67
     7
 79
     5
170
     0
171
     0
290
     0
174
     0
 93
        1
 44
0.0
173
     0
291
     1
 45
0.0
1001
ACAD
1000
AcDbSavedByObjectVersion
1070
     0
  0
VISUALSTYLE
  5
663
102
{ACAD_XDICTIONARY
360
FF3
102
}
102
{ACAD_REACTORS
330
65A
102
}
330
65A
100
AcDbVisualStyle
  2
Conceptual
 70
     9
 71
     3
 72
     2
 73
     0
 90
        0
 40
-0.6
 41
-30.0
 62
     5
 63
     7
 74
     2
 91
        2
 64
     7
 65
   257
 75
     1
175
     1
 42
179.0
 92
        8
 66
     7
 43
1.0
 76
     1
 77
     6
 78
     2
 67
     7
 79
     3
170
     0
171
     0
290
     0
174
     0
 93
        1
 44
0.0
173
     0
291
     0
 45
0.0
1001
ACAD
1000
AcDbSavedByObjectVersion
1070
     0
  0
VISUALSTYLE
  5
665
102
{ACAD_XDICTIONARY
360
FF7
102
}
102
{ACAD_REACTORS
330
65A
102
}
330
65A
100
AcDbVisualStyle
  2
Dim
 70
    11
 71
     2
 72
     2
 73
     0
 90
        0
 40
-0.6
 41
-30.0
 62
     5
 63
     7
 74
     1
 91
        4
 64
     7
 65
   257
 75
     1
175
     1
 42
1.0
 92
        8
 66
     7
 43
1.0
 76
     1
 77
     6
 78
     2
 67
     7
 79
     5
170
     0
171
     0
290
     0
174
     0
 93
        1
 44
-50.0
173
     0
291
     1
 45
0.0
1001
ACAD
1000
AcDbSavedByObjectVersion
1070
     0
  0
VISUALSTYLE
  5
66D
102
{ACAD_XDICTIONARY
360
1007
102
}
102
{ACAD_REACTORS
330
65A
102
}
330
65A
100
AcDbVisualStyle
  2
EdgeColorOff
 70
    22
 71
     2
 72
     2
 73
     0
 90
        0
 40
-0.6
 41
-30.0
 62
     5
 63
     7
 74
     1
 91
        4
 64
     7
 65
   257
 75
     1
175
     1
 42
1.0
 92
        8
 66
     7
 43
1.0
 76
     1
 77
     6
 78
     2
 67
     7
 79
     5
170
     0
171
     0
290
     0
174
     0
 93
        1
 44
0.0
173
     0
291
     1
 45
0.0
1001
ACAD
1000
AcDbSavedByObjectVersion
1070
     0
  0
VISUALSTYLE
  5
669
102
{ACAD_XDICTIONARY
360
FFF
102
}
102
{ACAD_REACTORS
330
65A
102
}
330
65A
100
AcDbVisualStyle
  2
Facepattern
 70
    15
 71
     2
 72
     2
 73
     0
 90
        0
 40
-0.6
 41
-30.0
 62
     5
 63
     7
 74
     1
 91
        4
 64
     7
 65
   257
 75
     1
175
     1
 42
1.0
 92
        8
 66
     7
 43
1.0
 76
     1
 77
     6
 78
     2
 67
     7
 79
     5
170
     0
171
     0
290
     0
174
     0
 93
        1
 44
0.0
173
     0
291
     1
 45
0.0
1001
ACAD
1000
AcDbSavedByObjectVersion
1070
     0
  0
VISUALSTYLE
  5
65B
102
{ACAD_XDICTIONARY
360
FE3
102
}
102
{ACAD_REACTORS
330
65A
102
}
330
65A
100
AcDbVisualStyle
  2
Flat
 70
     0
 71
     2
 72
     1
 73
     1
 90
        2
 40
-0.6
 41
30.0
 62
     5
 63
     7
 74
     0
 91
        4
 64
     7
 65
   257
 75
     1
175
     1
 42
1.0
 92
        8
 66
     7
 43
1.0
 76
     1
 77
     6
 78
     2
 67
     7
 79
     5
170
     0
171
     0
290
     0
174
     0
 93
       13
 44
0.0
173
     0
291
     1
 45
0.0
1001
ACAD
1000
AcDbSavedByObjectVersion
1070
     0
  0
VISUALSTYLE
  5
65C
102
{ACAD_XDICTIONARY
360
FE5
102
}
102
{ACAD_REACTORS
330
65A
102
}
330
65A
100
AcDbVisualStyle
  2
FlatWithEdges
 70
     1
 71
     2
 72
     1
 73
     1
 90
        2
 40
-0.6
 41
30.0
 62
     5
 63
     7
 74
     1
 91
        4
 64
     7
 65
   257
 75
     1
175
     1
 42
1.0
 92
        0
 66
   257
 43
1.0
 76
     1
 77
     6
 78
     2
 67
     7
 79
     5
170
     0
171
     0
290
     0
174
     0
 93
       13
 44
0.0
173
     0
291
     1
 45
0.0
1001
ACAD
1000
AcDbSavedByObjectVersion
1070
     0
  0
VISUALSTYLE
  5
65D
102
{ACAD_XDICTIONARY
360
FE7
102
}
102
{ACAD_REACTORS
330
65A
102
}
330
65A
100
AcDbVisualStyle
  2
Gouraud
 70
     2
 71
     2
 72
     2
 73
     1
 90
        2
 40
-0.6
 41
30.0
 62
     5
 63
     7
 74
     0
 91
        4
 64
     7
 65
   257
 75
     1
175
     1
 42
1.0
 92
        0
 66
     7
 43
1.0
 76
     1
 77
     6
 78
     2
 67
     7
 79
     5
170
     0
171
     0
290
     0
174
     0
 93
       13
 44
0.0
173
     0
291
     1
 45
0.0
1001
ACAD
1000
AcDbSavedByObjectVersion
1070
     0
  0
VISUALSTYLE
  5
65E
102
{ACAD_XDICTIONARY
360
FE9
102
}
102
{ACAD_REACTORS
330
65A
102
}
330
65A
100
AcDbVisualStyle
  2
GouraudWithEdges
 70
     3
 71
     2
 72
     2
 73
     1
 90
        2
 40
-0.6
 41
30.0
 62
     5
 63
     7
 74
     1
 91
        4
 64
     7
 65
   257
 75
     1
175
     1
 42
1.0
 92
        0
 66
   257
 43
1.0
 76
     1
 77
     6
 78
     2
 67
     7
 79
     5
170
     0
171
     0
290
     0
174
     0
 93
       13
 44
0.0
173
     0
291
     1
 45
0.0
1001
ACAD
1000
AcDbSavedByObjectVersion
1070
     0
  0
VISUALSTYLE
  5
66B
102
{ACAD_XDICTIONARY
360
1003
102
}
102
{ACAD_REACTORS
330
65A
102
}
330
65A
100
AcDbVisualStyle
  2
JitterOff
 70
    20
 71
     2
 72
     2
 73
     0
 90
        0
 40
-0.6
 41
-30.0
 62
     5
 63
     7
 74
     1
 91
        4
 64
     7
 65
   257
 75
     1
175
     1
 42
1.0
 92
       10
 66
     7
 43
1.0
 76
     1
 77
     6
 78
     2
 67
     7
 79
     5
170
     0
171
     0
290
     0
174
     0
 93
        1
 44
0.0
173
     0
291
     1
 45
0.0
1001
ACAD
1000
AcDbSavedByObjectVersion
1070
     0
  0
VISUALSTYLE
  5
668
102
{ACAD_XDICTIONARY
360
FFD
102
}
102
{ACAD_REACTORS
330
65A
102
}
330
65A
100
AcDbVisualStyle
  2
Linepattern
 70
    14
 71
     2
 72
     2
 73
     0
 90
        0
 40
-0.6
 41
-30.0
 62
     5
 63
     7
 74
     1
 91
        4
 64
     7
 65
   257
 75
     7
175
     7
 42
1.0
 92
        8
 66
     7
 43
1.0
 76
     1
 77
     6
 78
     2
 67
     7
 79
     5
170
     0
171
     0
290
     0
174
     0
 93
        1
 44
0.0
173
     0
291
     1
 45
0.0
1001
ACAD
1000
AcDbSavedByObjectVersion
1070
     0
  0
VISUALSTYLE
  5
66C
102
{ACAD_XDICTIONARY
360
1005
102
}
102
{ACAD_REACTORS
330
65A
102
}
330
65A
100
AcDbVisualStyle
  2
OverhangOff
 70
    21
 71
     2
 72
     2
 73
     0
 90
        0
 40
-0.6
 41
-30.0
 62
     5
 63
     7
 74
     1
 91
        4
 64
     7
 65
   257
 75
     1
175
     1
 42
1.0
 92
        9
 66
     7
 43
1.0
 76
     1
 77
     6
 78
     2
 67
     7
 79
     5
170
     0
171
     0
290
     0
174
     0
 93
        1
 44
0.0
173
     0
291
     1
 45
0.0
1001
ACAD
1000
AcDbSavedByObjectVersion
1070
     0
  0
VISUALSTYLE
  5
664
102
{ACAD_XDICTIONARY
360
FF5
102
}
102
{ACAD_REACTORS
330
65A
102
}
330
65A
100
AcDbVisualStyle
  2
Realistic
 70
     8
 71
     2
 72
     2
 73
     0
 90
        0
 40
-0.6
 41
-30.0
 62
     5
 63
     7
 74
     1
 91
        0
 64
     7
 65
   257
 75
     1
175
     1
 42
1.0
 92
        8
 66
     8
 43
1.0
 76
     1
 77
     6
 78
     2
 67
     7
 79
     5
170
     0
171
     0
290
     0
174
     0
 93
       13
 44
0.0
173
     0
291
     0
 45
0.0
1001
ACAD
1000
AcDbSavedByObjectVersion
1070
     0
  0
VISUALSTYLE
  5
667
102
{ACAD_XDICTIONARY
360
FFB
102
}
102
{ACAD_REACTORS
330
65A
102
}
330
65A
100
AcDbVisualStyle
  2
Thicken
 70
    13
 71
     2
 72
     2
 73
     0
 90
        0
 40
-0.6
 41
-30.0
 62
     5
 63
     7
 74
     1
 91
        4
 64
     7
 65
   257
 75
     1
175
     1
 42
1.0
 92
       12
 66
     7
 43
1.0
 76
     1
 77
     6
 78
     2
 67
     7
 79
     5
170
     0
171
     0
290
     0
174
     0
 93
        1
 44
0.0
173
     0
291
     1
 45
0.0
1001
ACAD
1000
AcDbSavedByObjectVersion
1070
     0
  0
DICTIONARYVAR
  5
C99
102
{ACAD_REACTORS
330
C96
102
}
330
C96
100
DictionaryVariables
280
     0
  1
1:1
  0
DICTIONARYVAR
  5
C98
102
{ACAD_REACTORS
330
C96
102
}
330
C96
100
DictionaryVariables
280
     0
  1
STANDARD
  0
DICTIONARYVAR
  5
C97
102
{ACAD_REACTORS
330
C96
102
}
330
C96
100
DictionaryVariables
280
     0
  1
STANDARD
  0
DICTIONARYVAR
  5
C9C
102
{ACAD_REACTORS
330
C96
102
}
330
C96
100
DictionaryVariables
280
     0
  1
1
  0
DICTIONARYVAR
  5
C9B
102
{ACAD_REACTORS
330
C96
102
}
330
C96
100
DictionaryVariables
280
     0
  1
0
  0
DICTIONARYVAR
  5
C9A
102
{ACAD_REACTORS
330
C96
102
}
330
C96
100
DictionaryVariables
280
     0
  1
127
  0
DICTIONARYVAR
  5
FDA
102
{ACAD_REACTORS
330
C96
102
}
330
C96
100
DictionaryVariables
280
     0
  1
2
  0
XRECORD
  5
E44
102
{ACAD_REACTORS
330
E42
102
}
330
E42
100
AcDbXrecord
280
     1
330
9C8
330
9CB
330
A03
330
BCD
  0
DICTIONARY
  5
A06
102
{ACAD_REACTORS
330
1D1
102
}
330
1D1
100
AcDbDictionary
281
     1
  3
$PH$AAAA
350
A07
  3
PH_GRPMEMBERS
350
A0B
  0
DICTIONARY
  5
BCE
102
{ACAD_REACTORS
330
1D1
102
}
330
1D1
100
AcDbDictionary
281
     1
  3
PH_GRPMEMBERS
350
BCF
  0
DICTIONARY
  5
100C
330
688
100
AcDbDictionary
280
     1
281
     1
  3
ACAD_XREC_ROUNDTRIP
360
100D
  0
DICTIONARY
  5
100A
330
687
100
AcDbDictionary
280
     1
281
     1
  3
ACAD_XREC_ROUNDTRIP
360
100B
  0
DICTIONARY
  5
64B
330
64A
100
AcDbDictionary
280
     1
281
     1
  3
ACAD_XREC_ROUNDTRIP
360
FE1
  3
BUMPTILE
360
64D
  3
DIFFUSETILE
360
64C
  3
OPACITYTILE
360
650
  3
REFLECTIONTILE
360
64F
  3
REFRACTIONTILE
360
651
  3
SPECULARTILE
360
64E
  0
DICTIONARY
  5
643
330
642
100
AcDbDictionary
280
     1
281
     1
  3
ACAD_XREC_ROUNDTRIP
360
FE0
  3
BUMPTILE
360
645
  3
DIFFUSETILE
360
644
  3
OPACITYTILE
360
648
  3
REFLECTIONTILE
360
647
  3
REFRACTIONTILE
360
649
  3
SPECULARTILE
360
646
  0
DICTIONARY
  5
653
330
652
100
AcDbDictionary
280
     1
281
     1
  3
ACAD_XREC_ROUNDTRIP
360
FE2
  3
BUMPTILE
360
655
  3
DIFFUSETILE
360
654
  3
OPACITYTILE
360
658
  3
REFLECTIONTILE
360
657
  3
REFRACTIONTILE
360
659
  3
SPECULARTILE
360
656
  0
DICTIONARY
  5
C5F
330
670
100
AcDbDictionary
280
     1
281
     1
  3
ACAD_ROUNDTRIP_2008_TABLESTYLE_CELLSTYLEMAP
360
FDB
  3
ACAD_XREC_ROUNDTRIP
360
1009
  0
DICTIONARY
  5
FED
330
660
100
AcDbDictionary
280
     1
281
     1
  3
ACAD_XREC_ROUNDTRIP
360
FEE
  0
DICTIONARY
  5
FF1
330
662
100
AcDbDictionary
280
     1
281
     1
  3
ACAD_XREC_ROUNDTRIP
360
FF2
  0
DICTIONARY
  5
FEF
330
661
100
AcDbDictionary
280
     1
281
     1
  3
ACAD_XREC_ROUNDTRIP
360
FF0
  0
DICTIONARY
  5
FEB
330
65F
100
AcDbDictionary
280
     1
281
     1
  3
ACAD_XREC_ROUNDTRIP
360
FEC
  0
DICTIONARY
  5
FF9
330
666
100
AcDbDictionary
280
     1
281
     1
  3
ACAD_XREC_ROUNDTRIP
360
FFA
  0
DICTIONARY
  5
1001
330
66A
100
AcDbDictionary
280
     1
281
     1
  3
ACAD_XREC_ROUNDTRIP
360
1002
  0
DICTIONARY
  5
FF3
330
663
100
AcDbDictionary
280
     1
281
     1
  3
ACAD_XREC_ROUNDTRIP
360
FF4
  0
DICTIONARY
  5
FF7
330
665
100
AcDbDictionary
280
     1
281
     1
  3
ACAD_XREC_ROUNDTRIP
360
FF8
  0
DICTIONARY
  5
1007
330
66D
100
AcDbDictionary
280
     1
281
     1
  3
ACAD_XREC_ROUNDTRIP
360
1008
  0
DICTIONARY
  5
FFF
330
669
100
AcDbDictionary
280
     1
281
     1
  3
ACAD_XREC_ROUNDTRIP
360
1000
  0
DICTIONARY
  5
FE3
330
65B
100
AcDbDictionary
280
     1
281
     1
  3
ACAD_XREC_ROUNDTRIP
360
FE4
  0
DICTIONARY
  5
FE5
330
65C
100
AcDbDictionary
280
     1
281
     1
  3
ACAD_XREC_ROUNDTRIP
360
FE6
  0
DICTIONARY
  5
FE7
330
65D
100
AcDbDictionary
280
     1
281
     1
  3
ACAD_XREC_ROUNDTRIP
360
FE8
  0
DICTIONARY
  5
FE9
330
65E
100
AcDbDictionary
280
     1
281
     1
  3
ACAD_XREC_ROUNDTRIP
360
FEA
  0
DICTIONARY
  5
1003
330
66B
100
AcDbDictionary
280
     1
281
     1
  3
ACAD_XREC_ROUNDTRIP
360
1004
  0
DICTIONARY
  5
FFD
330
668
100
AcDbDictionary
280
     1
281
     1
  3
ACAD_XREC_ROUNDTRIP
360
FFE
  0
DICTIONARY
  5
1005
330
66C
100
AcDbDictionary
280
     1
281
     1
  3
ACAD_XREC_ROUNDTRIP
360
1006
  0
DICTIONARY
  5
FF5
330
664
100
AcDbDictionary
280
     1
281
     1
  3
ACAD_XREC_ROUNDTRIP
360
FF6
  0
DICTIONARY
  5
FFB
330
667
100
AcDbDictionary
280
     1
281
     1
  3
ACAD_XREC_ROUNDTRIP
360
FFC
  0
DICTIONARY
  5
A07
102
{ACAD_REACTORS
330
A06
102
}
330
A06
100
AcDbDictionary
281
     1
  3
$PH$AAAA
350
A08
  3
PH_GRPMEMBERS
350
A0A
  0
PH_GROUP
  5
A0B
102
{ACAD_REACTORS
330
A06
102
}
330
A06
  0
PH_GROUP
  5
BCF
102
{ACAD_REACTORS
330
BCE
102
}
330
BCE
  0
XRECORD
  5
100D
102
{ACAD_REACTORS
330
100C
102
}
330
100C
100
AcDbXrecord
280
     1
102
SHADEPLOT
 70
     0
102
SHADEPLOTRESLEVEL
 70
     2
102
SHADEPLOTCUSTOMDPI
 70
   300
  0
XRECORD
  5
100B
102
{ACAD_REACTORS
330
100A
102
}
330
100A
100
AcDbXrecord
280
     1
102
SHADEPLOT
 70
     0
102
SHADEPLOTRESLEVEL
 70
     2
102
SHADEPLOTCUSTOMDPI
 70
   300
  0
XRECORD
  5
FE1
102
{ACAD_REACTORS
330
64B
102
}
330
64B
100
AcDbXrecord
280
     1
102
MATERIAL
148
0.0
149
0.0
149
0.0
 93
        0
 94
      127
282
     0
 72
     0
 77
     0
171
     0
175
     0
179
     0
273
     0
  0
XRECORD
  5
64D
102
{ACAD_REACTORS
330
64B
102
}
330
64B
100
AcDbXrecord
280
     1
270
     1
271
     1
  0
XRECORD
  5
64C
102
{ACAD_REACTORS
330
64B
102
}
330
64B
100
AcDbXrecord
280
     1
270
     1
271
     1
  0
XRECORD
  5
650
102
{ACAD_REACTORS
330
64B
102
}
330
64B
100
AcDbXrecord
280
     1
270
     1
271
     1
  0
XRECORD
  5
64F
102
{ACAD_REACTORS
330
64B
102
}
330
64B
100
AcDbXrecord
280
     1
270
     1
271
     1
  0
XRECORD
  5
651
102
{ACAD_REACTORS
330
64B
102
}
330
64B
100
AcDbXrecord
280
     1
270
     1
271
     1
  0
XRECORD
  5
64E
102
{ACAD_REACTORS
330
64B
102
}
330
64B
100
AcDbXrecord
280
     1
270
     1
271
     1
  0
XRECORD
  5
FE0
102
{ACAD_REACTORS
330
643
102
}
330
643
100
AcDbXrecord
280
     1
102
MATERIAL
148
0.0
149
0.0
149
0.0
 93
        0
 94
      127
282
     0
 72
     0
 77
     0
171
     0
175
     0
179
     0
273
     0
  0
XRECORD
  5
645
102
{ACAD_REACTORS
330
643
102
}
330
643
100
AcDbXrecord
280
     1
270
     1
271
     1
  0
XRECORD
  5
644
102
{ACAD_REACTORS
330
643
102
}
330
643
100
AcDbXrecord
280
     1
270
     1
271
     1
  0
XRECORD
  5
648
102
{ACAD_REACTORS
330
643
102
}
330
643
100
AcDbXrecord
280
     1
270
     1
271
     1
  0
XRECORD
  5
647
102
{ACAD_REACTORS
330
643
102
}
330
643
100
AcDbXrecord
280
     1
270
     1
271
     1
  0
XRECORD
  5
649
102
{ACAD_REACTORS
330
643
102
}
330
643
100
AcDbXrecord
280
     1
270
     1
271
     1
  0
XRECORD
  5
646
102
{ACAD_REACTORS
330
643
102
}
330
643
100
AcDbXrecord
280
     1
270
     1
271
     1
  0
XRECORD
  5
FE2
102
{ACAD_REACTORS
330
653
102
}
330
653
100
AcDbXrecord
280
     1
102
MATERIAL
148
0.0
149
0.0
149
0.0
 93
        0
 94
      127
282
     0
 72
     0
 77
     0
171
     0
175
     0
179
     0
273
     0
  0
XRECORD
  5
655
102
{ACAD_REACTORS
330
653
102
}
330
653
100
AcDbXrecord
280
     1
270
     1
271
     1
  0
XRECORD
  5
654
102
{ACAD_REACTORS
330
653
102
}
330
653
100
AcDbXrecord
280
     1
270
     1
271
     1
  0
XRECORD
  5
658
102
{ACAD_REACTORS
330
653
102
}
330
653
100
AcDbXrecord
280
     1
270
     1
271
     1
  0
XRECORD
  5
657
102
{ACAD_REACTORS
330
653
102
}
330
653
100
AcDbXrecord
280
     1
270
     1
271
     1
  0
XRECORD
  5
659
102
{ACAD_REACTORS
330
653
102
}
330
653
100
AcDbXrecord
280
     1
270
     1
271
     1
  0
XRECORD
  5
656
102
{ACAD_REACTORS
330
653
102
}
330
653
100
AcDbXrecord
280
     1
270
     1
271
     1
  0
CELLSTYLEMAP
  5
FDB
102
{ACAD_REACTORS
330
C5F
102
}
330
C5F
100
AcDbCellStyleMap
 90
        3
300
CELLSTYLE
  1
TABLEFORMAT_BEGIN
 90
        5
170
     1
 91
        0
 92
    32768
 62
   257
 93
        1
300
CONTENTFORMAT
  1
CONTENTFORMAT_BEGIN
 90
        0
 91
        0
 92
      512
 93
        0
300

 40
0.0
140
1.0
 94
        5
 62
     0
340
F
144
6.0
309
CONTENTFORMAT_END
171
     1
301
MARGIN
  1
CELLMARGIN_BEGIN
 40
1.5
 40
1.5
 40
1.5
 40
1.5
 40
4.5
 40
4.5
309
CELLMARGIN_END
 94
        6
 95
        1
302
GRIDFORMAT
  1
GRIDFORMAT_BEGIN
 90
        0
 91
        1
 62
     0
 92
       -2
340
0
 93
        0
 40
1.125
309
GRIDFORMAT_END
 95
        2
302
GRIDFORMAT
  1
GRIDFORMAT_BEGIN
 90
        0
 91
        1
 62
     0
 92
       -2
340
0
 93
        0
 40
1.125
309
GRIDFORMAT_END
 95
        4
302
GRIDFORMAT
  1
GRIDFORMAT_BEGIN
 90
        0
 91
        1
 62
     0
 92
       -2
340
0
 93
        0
 40
1.125
309
GRIDFORMAT_END
 95
        8
302
GRIDFORMAT
  1
GRIDFORMAT_BEGIN
 90
        0
 91
        1
 62
     0
 92
       -2
340
0
 93
        0
 40
1.125
309
GRIDFORMAT_END
 95
       16
302
GRIDFORMAT
  1
GRIDFORMAT_BEGIN
 90
        0
 91
        1
 62
     0
 92
       -2
340
0
 93
        0
 40
1.125
309
GRIDFORMAT_END
 95
       32
302
GRIDFORMAT
  1
GRIDFORMAT_BEGIN
 90
        0
 91
        1
 62
     0
 92
       -2
340
0
 93
        0
 40
1.125
309
GRIDFORMAT_END
309
TABLEFORMAT_END
  1
CELLSTYLE_BEGIN
 90
        1
 91
        1
300
_TITLE
309
CELLSTYLE_END
300
CELLSTYLE
  1
TABLEFORMAT_BEGIN
 90
        5
170
     1
 91
        0
 92
        0
 62
   257
 93
        1
300
CONTENTFORMAT
  1
CONTENTFORMAT_BEGIN
 90
        0
 91
        0
 92
      512
 93
        0
300

 40
0.0
140
1.0
 94
        5
 62
     0
340
F
144
4.5
309
CONTENTFORMAT_END
171
     1
301
MARGIN
  1
CELLMARGIN_BEGIN
 40
1.5
 40
1.5
 40
1.5
 40
1.5
 40
4.5
 40
4.5
309
CELLMARGIN_END
 94
        6
 95
        1
302
GRIDFORMAT
  1
GRIDFORMAT_BEGIN
 90
        0
 91
        1
 62
     0
 92
       -2
340
0
 93
        0
 40
1.125
309
GRIDFORMAT_END
 95
        2
302
GRIDFORMAT
  1
GRIDFORMAT_BEGIN
 90
        0
 91
        1
 62
     0
 92
       -2
340
0
 93
        0
 40
1.125
309
GRIDFORMAT_END
 95
        4
302
GRIDFORMAT
  1
GRIDFORMAT_BEGIN
 90
        0
 91
        1
 62
     0
 92
       -2
340
0
 93
        0
 40
1.125
309
GRIDFORMAT_END
 95
        8
302
GRIDFORMAT
  1
GRIDFORMAT_BEGIN
 90
        0
 91
        1
 62
     0
 92
       -2
340
0
 93
        0
 40
1.125
309
GRIDFORMAT_END
 95
       16
302
GRIDFORMAT
  1
GRIDFORMAT_BEGIN
 90
        0
 91
        1
 62
     0
 92
       -2
340
0
 93
        0
 40
1.125
309
GRIDFORMAT_END
 95
       32
302
GRIDFORMAT
  1
GRIDFORMAT_BEGIN
 90
        0
 91
        1
 62
     0
 92
       -2
340
0
 93
        0
 40
1.125
309
GRIDFORMAT_END
309
TABLEFORMAT_END
  1
CELLSTYLE_BEGIN
 90
        2
 91
        1
300
_HEADER
309
CELLSTYLE_END
300
CELLSTYLE
  1
TABLEFORMAT_BEGIN
 90
        5
170
     1
 91
        0
 92
        0
 62
   257
 93
        1
300
CONTENTFORMAT
  1
CONTENTFORMAT_BEGIN
 90
        0
 91
        0
 92
      512
 93
        0
300

 40
0.0
140
1.0
 94
        2
 62
     0
340
F
144
4.5
309
CONTENTFORMAT_END
171
     1
301
MARGIN
  1
CELLMARGIN_BEGIN
 40
1.5
 40
1.5
 40
1.5
 40
1.5
 40
4.5
 40
4.5
309
CELLMARGIN_END
 94
        6
 95
        1
302
GRIDFORMAT
  1
GRIDFORMAT_BEGIN
 90
        0
 91
        1
 62
     0
 92
       -2
340
0
 93
        0
 40
1.125
309
GRIDFORMAT_END
 95
        2
302
GRIDFORMAT
  1
GRIDFORMAT_BEGIN
 90
        0
 91
        1
 62
     0
 92
       -2
340
0
 93
        0
 40
1.125
309
GRIDFORMAT_END
 95
        4
302
GRIDFORMAT
  1
GRIDFORMAT_BEGIN
 90
        0
 91
        1
 62
     0
 92
       -2
340
0
 93
        0
 40
1.125
309
GRIDFORMAT_END
 95
        8
302
GRIDFORMAT
  1
GRIDFORMAT_BEGIN
 90
        0
 91
        1
 62
     0
 92
       -2
340
0
 93
        0
 40
1.125
309
GRIDFORMAT_END
 95
       16
302
GRIDFORMAT
  1
GRIDFORMAT_BEGIN
 90
        0
 91
        1
 62
     0
 92
       -2
340
0
 93
        0
 40
1.125
309
GRIDFORMAT_END
 95
       32
302
GRIDFORMAT
  1
GRIDFORMAT_BEGIN
 90
        0
 91
        1
 62
     0
 92
       -2
340
0
 93
        0
 40
1.125
309
GRIDFORMAT_END
309
TABLEFORMAT_END
  1
CELLSTYLE_BEGIN
 90
        3
 91
        2
300
_DATA
309
CELLSTYLE_END
  0
XRECORD
  5
1009
102
{ACAD_REACTORS
330
C5F
102
}
330
C5F
100
AcDbXrecord
280
     1
102
ACAD_ROUNDTRIP_PRE2007_TABLESTYLE
 90
      512
 91
        0
  1

 92
      512
 93
        0
  2

 94
      512
 95
        0
  3

  0
XRECORD
  5
FEE
102
{ACAD_REACTORS
330
FED
102
}
330
FED
100
AcDbXrecord
280
     1
102
RTVSPropertyOp0
 70
     1
102
RTVSPropertyOp1
 70
     1
102
RTVSPropertyOp2
 70
     1
102
RTVSPropertyOp3
 70
     1
102
RTVSPropertyOp4
 70
     1
102
RTVSPropertyOp5
 70
     1
102
RTVSPropertyOp6
 70
     1
102
RTVSPropertyOp7
 70
     1
102
RTVSPropertyOp8
 70
     1
102
RTVSPropertyOp9
 70
     1
102
RTVSPropertyOp10
 70
     1
102
RTVSPropertyOp11
 70
     1
102
RTVSPropertyOp12
 70
     1
102
RTVSPropertyOp13
 70
     1
102
RTVSPropertyOp14
 70
     1
102
RTVSPropertyOp15
 70
     1
102
RTVSPropertyOp16
 70
     1
102
RTVSPropertyOp17
 70
     1
102
RTVSPropertyOp18
 70
     1
102
RTVSPropertyOp19
 70
     1
102
RTVSPropertyOp20
 70
     1
102
RTVSPropertyOp21
 70
     1
102
RTVSPropertyOp22
 70
     1
102
RTVSPropertyOp23
 70
     1
102
RTVSPropertyOp24
 70
     1
102
RTVSPropertyOp25
 70
     1
102
RTVSPropertyOp26
 70
     1
102
RTVSPropertyOp27
 70
     1
  0
XRECORD
  5
FF2
102
{ACAD_REACTORS
330
FF1
102
}
330
FF1
100
AcDbXrecord
280
     1
102
RTVSPropertyOp0
 70
     1
102
RTVSPropertyOp1
 70
     1
102
RTVSPropertyOp2
 70
     1
102
RTVSPropertyOp3
 70
     1
102
RTVSPropertyOp4
 70
     1
102
RTVSPropertyOp5
 70
     1
102
RTVSPropertyOp6
 70
     1
102
RTVSPropertyOp7
 70
     1
102
RTVSPropertyOp8
 70
     1
102
RTVSPropertyOp9
 70
     1
102
RTVSPropertyOp10
 70
     1
102
RTVSPropertyOp11
 70
     1
102
RTVSPropertyOp12
 70
     1
102
RTVSPropertyOp13
 70
     1
102
RTVSPropertyOp14
 70
     1
102
RTVSPropertyOp15
 70
     1
102
RTVSPropertyOp16
 70
     1
102
RTVSPropertyOp17
 70
     1
102
RTVSPropertyOp18
 70
     1
102
RTVSPropertyOp19
 70
     1
102
RTVSPropertyOp20
 70
     1
102
RTVSPropertyOp21
 70
     1
102
RTVSPropertyOp22
 70
     1
102
RTVSPropertyOp23
 70
     1
102
RTVSPropertyOp24
 70
     1
102
RTVSPropertyOp25
 70
     1
102
RTVSPropertyOp26
 70
     1
102
RTVSPropertyOp27
 70
     1
  0
XRECORD
  5
FF0
102
{ACAD_REACTORS
330
FEF
102
}
330
FEF
100
AcDbXrecord
280
     1
102
RTVSPropertyOp0
 70
     1
102
RTVSPropertyOp1
 70
     1
102
RTVSPropertyOp2
 70
     1
102
RTVSPropertyOp3
 70
     1
102
RTVSPropertyOp4
 70
     1
102
RTVSPropertyOp5
 70
     1
102
RTVSPropertyOp6
 70
     1
102
RTVSPropertyOp7
 70
     1
102
RTVSPropertyOp8
 70
     1
102
RTVSPropertyOp9
 70
     1
102
RTVSPropertyOp10
 70
     1
102
RTVSPropertyOp11
 70
     1
102
RTVSPropertyOp12
 70
     1
102
RTVSPropertyOp13
 70
     1
102
RTVSPropertyOp14
 70
     1
102
RTVSPropertyOp15
 70
     1
102
RTVSPropertyOp16
 70
     1
102
RTVSPropertyOp17
 70
     1
102
RTVSPropertyOp18
 70
     1
102
RTVSPropertyOp19
 70
     1
102
RTVSPropertyOp20
 70
     1
102
RTVSPropertyOp21
 70
     1
102
RTVSPropertyOp22
 70
     1
102
RTVSPropertyOp23
 70
     1
102
RTVSPropertyOp24
 70
     1
102
RTVSPropertyOp25
 70
     1
102
RTVSPropertyOp26
 70
     1
102
RTVSPropertyOp27
 70
     1
  0
XRECORD
  5
FEC
102
{ACAD_REACTORS
330
FEB
102
}
330
FEB
100
AcDbXrecord
280
     1
102
RTVSPropertyOp0
 70
     1
102
RTVSPropertyOp1
 70
     1
102
RTVSPropertyOp2
 70
     1
102
RTVSPropertyOp3
 70
     1
102
RTVSPropertyOp4
 70
     1
102
RTVSPropertyOp5
 70
     1
102
RTVSPropertyOp6
 70
     1
102
RTVSPropertyOp7
 70
     1
102
RTVSPropertyOp8
 70
     1
102
RTVSPropertyOp9
 70
     1
102
RTVSPropertyOp10
 70
     1
102
RTVSPropertyOp11
 70
     1
102
RTVSPropertyOp12
 70
     1
102
RTVSPropertyOp13
 70
     1
102
RTVSPropertyOp14
 70
     1
102
RTVSPropertyOp15
 70
     1
102
RTVSPropertyOp16
 70
     1
102
RTVSPropertyOp17
 70
     1
102
RTVSPropertyOp18
 70
     1
102
RTVSPropertyOp19
 70
     1
102
RTVSPropertyOp20
 70
     1
102
RTVSPropertyOp21
 70
     1
102
RTVSPropertyOp22
 70
     1
102
RTVSPropertyOp23
 70
     1
102
RTVSPropertyOp24
 70
     1
102
RTVSPropertyOp25
 70
     1
102
RTVSPropertyOp26
 70
     1
102
RTVSPropertyOp27
 70
     1
  0
XRECORD
  5
FFA
102
{ACAD_REACTORS
330
FF9
102
}
330
FF9
100
AcDbXrecord
280
     1
102
RTVSPropertyOp0
 70
     1
102
RTVSPropertyOp1
 70
     1
102
RTVSPropertyOp2
 70
     1
102
RTVSPropertyOp3
 70
     1
102
RTVSPropertyOp4
 70
     1
102
RTVSPropertyOp5
 70
     1
102
RTVSPropertyOp6
 70
     1
102
RTVSPropertyOp7
 70
     1
102
RTVSPropertyOp8
 70
     1
102
RTVSPropertyOp9
 70
     1
102
RTVSPropertyOp10
 70
     1
102
RTVSPropertyOp11
 70
     1
102
RTVSPropertyOp12
 70
     1
102
RTVSPropertyOp13
 70
     1
102
RTVSPropertyOp14
 70
     1
102
RTVSPropertyOp15
 70
     1
102
RTVSPropertyOp16
 70
     1
102
RTVSPropertyOp17
 70
     1
102
RTVSPropertyOp18
 70
     1
102
RTVSPropertyOp19
 70
     1
102
RTVSPropertyOp20
 70
     1
102
RTVSPropertyOp21
 70
     1
102
RTVSPropertyOp22
 70
     1
102
RTVSPropertyOp23
 70
     1
102
RTVSPropertyOp24
 70
     1
102
RTVSPropertyOp25
 70
     1
102
RTVSPropertyOp26
 70
     1
102
RTVSPropertyOp27
 70
     1
  0
XRECORD
  5
1002
102
{ACAD_REACTORS
330
1001
102
}
330
1001
100
AcDbXrecord
280
     1
102
RTVSPropertyOp0
 70
     1
102
RTVSPropertyOp1
 70
     1
102
RTVSPropertyOp2
 70
     1
102
RTVSPropertyOp3
 70
     1
102
RTVSPropertyOp4
 70
     1
102
RTVSPropertyOp5
 70
     1
102
RTVSPropertyOp6
 70
     1
102
RTVSPropertyOp7
 70
     1
102
RTVSPropertyOp8
 70
     1
102
RTVSPropertyOp9
 70
     1
102
RTVSPropertyOp10
 70
     1
102
RTVSPropertyOp11
 70
     1
102
RTVSPropertyOp12
 70
     1
102
RTVSPropertyOp13
 70
     1
102
RTVSPropertyOp14
 70
     1
102
RTVSPropertyOp15
 70
     1
102
RTVSPropertyOp16
 70
     1
102
RTVSPropertyOp17
 70
     1
102
RTVSPropertyOp18
 70
     1
102
RTVSPropertyOp19
 70
     1
102
RTVSPropertyOp20
 70
     1
102
RTVSPropertyOp21
 70
     1
102
RTVSPropertyOp22
 70
     1
102
RTVSPropertyOp23
 70
     1
102
RTVSPropertyOp24
 70
     1
102
RTVSPropertyOp25
 70
     1
102
RTVSPropertyOp26
 70
     1
102
RTVSPropertyOp27
 70
     1
  0
XRECORD
  5
FF4
102
{ACAD_REACTORS
330
FF3
102
}
330
FF3
100
AcDbXrecord
280
     1
102
RTVSPropertyOp0
 70
     1
102
RTVSPropertyOp1
 70
     1
102
RTVSPropertyOp2
 70
     1
102
RTVSPropertyOp3
 70
     1
102
RTVSPropertyOp4
 70
     1
102
RTVSPropertyOp5
 70
     1
102
RTVSPropertyOp6
 70
     1
102
RTVSPropertyOp7
 70
     1
102
RTVSPropertyOp8
 70
     1
102
RTVSPropertyOp9
 70
     1
102
RTVSPropertyOp10
 70
     1
102
RTVSPropertyOp11
 70
     1
102
RTVSPropertyOp12
 70
     1
102
RTVSPropertyOp13
 70
     1
102
RTVSPropertyOp14
 70
     1
102
RTVSPropertyOp15
 70
     1
102
RTVSPropertyOp16
 70
     1
102
RTVSPropertyOp17
 70
     1
102
RTVSPropertyOp18
 70
     1
102
RTVSPropertyOp19
 70
     1
102
RTVSPropertyOp20
 70
     1
102
RTVSPropertyOp21
 70
     1
102
RTVSPropertyOp22
 70
     1
102
RTVSPropertyOp23
 70
     1
102
RTVSPropertyOp24
 70
     1
102
RTVSPropertyOp25
 70
     1
102
RTVSPropertyOp26
 70
     1
102
RTVSPropertyOp27
 70
     1
  0
XRECORD
  5
FF8
102
{ACAD_REACTORS
330
FF7
102
}
330
FF7
100
AcDbXrecord
280
     1
102
RTVSPropertyOp0
 70
     1
102
RTVSPropertyOp1
 70
     1
102
RTVSPropertyOp2
 70
     1
102
RTVSPropertyOp3
 70
     1
102
RTVSPropertyOp4
 70
     1
102
RTVSPropertyOp5
 70
     1
102
RTVSPropertyOp6
 70
     1
102
RTVSPropertyOp7
 70
     1
102
RTVSPropertyOp8
 70
     1
102
RTVSPropertyOp9
 70
     1
102
RTVSPropertyOp10
 70
     1
102
RTVSPropertyOp11
 70
     1
102
RTVSPropertyOp12
 70
     1
102
RTVSPropertyOp13
 70
     1
102
RTVSPropertyOp14
 70
     1
102
RTVSPropertyOp15
 70
     1
102
RTVSPropertyOp16
 70
     1
102
RTVSPropertyOp17
 70
     1
102
RTVSPropertyOp18
 70
     1
102
RTVSPropertyOp19
 70
     1
102
RTVSPropertyOp20
 70
     1
102
RTVSPropertyOp21
 70
     1
102
RTVSPropertyOp22
 70
     1
102
RTVSPropertyOp23
 70
     1
102
RTVSPropertyOp24
 70
     1
102
RTVSPropertyOp25
 70
     1
102
RTVSPropertyOp26
 70
     1
102
RTVSPropertyOp27
 70
     1
  0
XRECORD
  5
1008
102
{ACAD_REACTORS
330
1007
102
}
330
1007
100
AcDbXrecord
280
     1
102
RTVSPropertyOp0
 70
     0
102
RTVSPropertyOp1
 70
     0
102
RTVSPropertyOp2
 70
     0
102
RTVSPropertyOp3
 70
     0
102
RTVSPropertyOp4
 70
     0
102
RTVSPropertyOp5
 70
     0
102
RTVSPropertyOp6
 70
     0
102
RTVSPropertyOp7
 70
     0
102
RTVSPropertyOp8
 70
     0
102
RTVSPropertyOp9
 70
     0
102
RTVSPropertyOp10
 70
     0
102
RTVSPropertyOp11
 70
     0
102
RTVSPropertyOp12
 70
     0
102
RTVSPropertyOp13
 70
     0
102
RTVSPropertyOp14
 70
     2
102
RTVSPropertyOp15
 70
     0
102
RTVSPropertyOp16
 70
     0
102
RTVSPropertyOp17
 70
     0
102
RTVSPropertyOp18
 70
     0
102
RTVSPropertyOp19
 70
     0
102
RTVSPropertyOp20
 70
     0
102
RTVSPropertyOp21
 70
     0
102
RTVSPropertyOp22
 70
     0
102
RTVSPropertyOp23
 70
     0
102
RTVSPropertyOp24
 70
     0
102
RTVSPropertyOp25
 70
     0
102
RTVSPropertyOp26
 70
     0
102
RTVSPropertyOp27
 70
     0
  0
XRECORD
  5
1000
102
{ACAD_REACTORS
330
FFF
102
}
330
FFF
100
AcDbXrecord
280
     1
102
RTVSPropertyOp0
 70
     1
102
RTVSPropertyOp1
 70
     1
102
RTVSPropertyOp2
 70
     1
102
RTVSPropertyOp3
 70
     1
102
RTVSPropertyOp4
 70
     1
102
RTVSPropertyOp5
 70
     1
102
RTVSPropertyOp6
 70
     1
102
RTVSPropertyOp7
 70
     1
102
RTVSPropertyOp8
 70
     1
102
RTVSPropertyOp9
 70
     1
102
RTVSPropertyOp10
 70
     1
102
RTVSPropertyOp11
 70
     1
102
RTVSPropertyOp12
 70
     1
102
RTVSPropertyOp13
 70
     1
102
RTVSPropertyOp14
 70
     1
102
RTVSPropertyOp15
 70
     1
102
RTVSPropertyOp16
 70
     1
102
RTVSPropertyOp17
 70
     1
102
RTVSPropertyOp18
 70
     1
102
RTVSPropertyOp19
 70
     1
102
RTVSPropertyOp20
 70
     1
102
RTVSPropertyOp21
 70
     1
102
RTVSPropertyOp22
 70
     1
102
RTVSPropertyOp23
 70
     1
102
RTVSPropertyOp24
 70
     1
102
RTVSPropertyOp25
 70
     1
102
RTVSPropertyOp26
 70
     1
102
RTVSPropertyOp27
 70
     1
  0
XRECORD
  5
FE4
102
{ACAD_REACTORS
330
FE3
102
}
330
FE3
100
AcDbXrecord
280
     1
102
RTVSPropertyOp0
 70
     1
102
RTVSPropertyOp1
 70
     1
102
RTVSPropertyOp2
 70
     1
102
RTVSPropertyOp3
 70
     1
102
RTVSPropertyOp4
 70
     1
102
RTVSPropertyOp5
 70
     1
102
RTVSPropertyOp6
 70
     1
102
RTVSPropertyOp7
 70
     1
102
RTVSPropertyOp8
 70
     1
102
RTVSPropertyOp9
 70
     1
102
RTVSPropertyOp10
 70
     1
102
RTVSPropertyOp11
 70
     1
102
RTVSPropertyOp12
 70
     1
102
RTVSPropertyOp13
 70
     1
102
RTVSPropertyOp14
 70
     1
102
RTVSPropertyOp15
 70
     1
102
RTVSPropertyOp16
 70
     1
102
RTVSPropertyOp17
 70
     1
102
RTVSPropertyOp18
 70
     1
102
RTVSPropertyOp19
 70
     1
102
RTVSPropertyOp20
 70
     1
102
RTVSPropertyOp21
 70
     1
102
RTVSPropertyOp22
 70
     1
102
RTVSPropertyOp23
 70
     1
102
RTVSPropertyOp24
 70
     1
102
RTVSPropertyOp25
 70
     1
102
RTVSPropertyOp26
 70
     1
102
RTVSPropertyOp27
 70
     1
  0
XRECORD
  5
FE6
102
{ACAD_REACTORS
330
FE5
102
}
330
FE5
100
AcDbXrecord
280
     1
102
RTVSPropertyOp0
 70
     1
102
RTVSPropertyOp1
 70
     1
102
RTVSPropertyOp2
 70
     1
102
RTVSPropertyOp3
 70
     1
102
RTVSPropertyOp4
 70
     1
102
RTVSPropertyOp5
 70
     1
102
RTVSPropertyOp6
 70
     1
102
RTVSPropertyOp7
 70
     1
102
RTVSPropertyOp8
 70
     1
102
RTVSPropertyOp9
 70
     1
102
RTVSPropertyOp10
 70
     1
102
RTVSPropertyOp11
 70
     1
102
RTVSPropertyOp12
 70
     1
102
RTVSPropertyOp13
 70
     1
102
RTVSPropertyOp14
 70
     1
102
RTVSPropertyOp15
 70
     1
102
RTVSPropertyOp16
 70
     1
102
RTVSPropertyOp17
 70
     1
102
RTVSPropertyOp18
 70
     1
102
RTVSPropertyOp19
 70
     1
102
RTVSPropertyOp20
 70
     1
102
RTVSPropertyOp21
 70
     1
102
RTVSPropertyOp22
 70
     1
102
RTVSPropertyOp23
 70
     1
102
RTVSPropertyOp24
 70
     1
102
RTVSPropertyOp25
 70
     1
102
RTVSPropertyOp26
 70
     1
102
RTVSPropertyOp27
 70
     1
  0
XRECORD
  5
FE8
102
{ACAD_REACTORS
330
FE7
102
}
330
FE7
100
AcDbXrecord
280
     1
102
RTVSPropertyOp0
 70
     1
102
RTVSPropertyOp1
 70
     1
102
RTVSPropertyOp2
 70
     1
102
RTVSPropertyOp3
 70
     1
102
RTVSPropertyOp4
 70
     1
102
RTVSPropertyOp5
 70
     1
102
RTVSPropertyOp6
 70
     1
102
RTVSPropertyOp7
 70
     1
102
RTVSPropertyOp8
 70
     1
102
RTVSPropertyOp9
 70
     1
102
RTVSPropertyOp10
 70
     1
102
RTVSPropertyOp11
 70
     1
102
RTVSPropertyOp12
 70
     1
102
RTVSPropertyOp13
 70
     1
102
RTVSPropertyOp14
 70
     1
102
RTVSPropertyOp15
 70
     1
102
RTVSPropertyOp16
 70
     1
102
RTVSPropertyOp17
 70
     1
102
RTVSPropertyOp18
 70
     1
102
RTVSPropertyOp19
 70
     1
102
RTVSPropertyOp20
 70
     1
102
RTVSPropertyOp21
 70
     1
102
RTVSPropertyOp22
 70
     1
102
RTVSPropertyOp23
 70
     1
102
RTVSPropertyOp24
 70
     1
102
RTVSPropertyOp25
 70
     1
102
RTVSPropertyOp26
 70
     1
102
RTVSPropertyOp27
 70
     1
  0
XRECORD
  5
FEA
102
{ACAD_REACTORS
330
FE9
102
}
330
FE9
100
AcDbXrecord
280
     1
102
RTVSPropertyOp0
 70
     1
102
RTVSPropertyOp1
 70
     1
102
RTVSPropertyOp2
 70
     1
102
RTVSPropertyOp3
 70
     1
102
RTVSPropertyOp4
 70
     1
102
RTVSPropertyOp5
 70
     1
102
RTVSPropertyOp6
 70
     1
102
RTVSPropertyOp7
 70
     1
102
RTVSPropertyOp8
 70
     1
102
RTVSPropertyOp9
 70
     1
102
RTVSPropertyOp10
 70
     1
102
RTVSPropertyOp11
 70
     1
102
RTVSPropertyOp12
 70
     1
102
RTVSPropertyOp13
 70
     1
102
RTVSPropertyOp14
 70
     1
102
RTVSPropertyOp15
 70
     1
102
RTVSPropertyOp16
 70
     1
102
RTVSPropertyOp17
 70
     1
102
RTVSPropertyOp18
 70
     1
102
RTVSPropertyOp19
 70
     1
102
RTVSPropertyOp20
 70
     1
102
RTVSPropertyOp21
 70
     1
102
RTVSPropertyOp22
 70
     1
102
RTVSPropertyOp23
 70
     1
102
RTVSPropertyOp24
 70
     1
102
RTVSPropertyOp25
 70
     1
102
RTVSPropertyOp26
 70
     1
102
RTVSPropertyOp27
 70
     1
  0
XRECORD
  5
1004
102
{ACAD_REACTORS
330
1003
102
}
330
1003
100
AcDbXrecord
280
     1
102
RTVSPropertyOp0
 70
     0
102
RTVSPropertyOp1
 70
     0
102
RTVSPropertyOp2
 70
     0
102
RTVSPropertyOp3
 70
     0
102
RTVSPropertyOp4
 70
     0
102
RTVSPropertyOp5
 70
     0
102
RTVSPropertyOp6
 70
     0
102
RTVSPropertyOp7
 70
     0
102
RTVSPropertyOp8
 70
     0
102
RTVSPropertyOp9
 70
     0
102
RTVSPropertyOp10
 70
     0
102
RTVSPropertyOp11
 70
     0
102
RTVSPropertyOp12
 70
     0
102
RTVSPropertyOp13
 70
     0
102
RTVSPropertyOp14
 70
     2
102
RTVSPropertyOp15
 70
     0
102
RTVSPropertyOp16
 70
     0
102
RTVSPropertyOp17
 70
     0
102
RTVSPropertyOp18
 70
     0
102
RTVSPropertyOp19
 70
     0
102
RTVSPropertyOp20
 70
     0
102
RTVSPropertyOp21
 70
     0
102
RTVSPropertyOp22
 70
     0
102
RTVSPropertyOp23
 70
     0
102
RTVSPropertyOp24
 70
     0
102
RTVSPropertyOp25
 70
     0
102
RTVSPropertyOp26
 70
     0
102
RTVSPropertyOp27
 70
     0
  0
XRECORD
  5
FFE
102
{ACAD_REACTORS
330
FFD
102
}
330
FFD
100
AcDbXrecord
280
     1
102
RTVSPropertyOp0
 70
     1
102
RTVSPropertyOp1
 70
     1
102
RTVSPropertyOp2
 70
     1
102
RTVSPropertyOp3
 70
     1
102
RTVSPropertyOp4
 70
     1
102
RTVSPropertyOp5
 70
     1
102
RTVSPropertyOp6
 70
     1
102
RTVSPropertyOp7
 70
     1
102
RTVSPropertyOp8
 70
     1
102
RTVSPropertyOp9
 70
     1
102
RTVSPropertyOp10
 70
     1
102
RTVSPropertyOp11
 70
     1
102
RTVSPropertyOp12
 70
     1
102
RTVSPropertyOp13
 70
     1
102
RTVSPropertyOp14
 70
     1
102
RTVSPropertyOp15
 70
     1
102
RTVSPropertyOp16
 70
     1
102
RTVSPropertyOp17
 70
     1
102
RTVSPropertyOp18
 70
     1
102
RTVSPropertyOp19
 70
     1
102
RTVSPropertyOp20
 70
     1
102
RTVSPropertyOp21
 70
     1
102
RTVSPropertyOp22
 70
     1
102
RTVSPropertyOp23
 70
     1
102
RTVSPropertyOp24
 70
     1
102
RTVSPropertyOp25
 70
     1
102
RTVSPropertyOp26
 70
     1
102
RTVSPropertyOp27
 70
     1
  0
XRECORD
  5
1006
102
{ACAD_REACTORS
330
1005
102
}
330
1005
100
AcDbXrecord
280
     1
102
RTVSPropertyOp0
 70
     0
102
RTVSPropertyOp1
 70
     0
102
RTVSPropertyOp2
 70
     0
102
RTVSPropertyOp3
 70
     0
102
RTVSPropertyOp4
 70
     0
102
RTVSPropertyOp5
 70
     0
102
RTVSPropertyOp6
 70
     0
102
RTVSPropertyOp7
 70
     0
102
RTVSPropertyOp8
 70
     0
102
RTVSPropertyOp9
 70
     0
102
RTVSPropertyOp10
 70
     0
102
RTVSPropertyOp11
 70
     0
102
RTVSPropertyOp12
 70
     0
102
RTVSPropertyOp13
 70
     0
102
RTVSPropertyOp14
 70
     2
102
RTVSPropertyOp15
 70
     0
102
RTVSPropertyOp16
 70
     0
102
RTVSPropertyOp17
 70
     0
102
RTVSPropertyOp18
 70
     0
102
RTVSPropertyOp19
 70
     0
102
RTVSPropertyOp20
 70
     0
102
RTVSPropertyOp21
 70
     0
102
RTVSPropertyOp22
 70
     0
102
RTVSPropertyOp23
 70
     0
102
RTVSPropertyOp24
 70
     0
102
RTVSPropertyOp25
 70
     0
102
RTVSPropertyOp26
 70
     0
102
RTVSPropertyOp27
 70
     0
  0
XRECORD
  5
FF6
102
{ACAD_REACTORS
330
FF5
102
}
330
FF5
100
AcDbXrecord
280
     1
102
RTVSPropertyOp0
 70
     1
102
RTVSPropertyOp1
 70
     1
102
RTVSPropertyOp2
 70
     1
102
RTVSPropertyOp3
 70
     1
102
RTVSPropertyOp4
 70
     1
102
RTVSPropertyOp5
 70
     1
102
RTVSPropertyOp6
 70
     1
102
RTVSPropertyOp7
 70
     1
102
RTVSPropertyOp8
 70
     1
102
RTVSPropertyOp9
 70
     1
102
RTVSPropertyOp10
 70
     1
102
RTVSPropertyOp11
 70
     1
102
RTVSPropertyOp12
 70
     1
102
RTVSPropertyOp13
 70
     1
102
RTVSPropertyOp14
 70
     1
102
RTVSPropertyOp15
 70
     1
102
RTVSPropertyOp16
 70
     1
102
RTVSPropertyOp17
 70
     1
102
RTVSPropertyOp18
 70
     1
102
RTVSPropertyOp19
 70
     1
102
RTVSPropertyOp20
 70
     1
102
RTVSPropertyOp21
 70
     1
102
RTVSPropertyOp22
 70
     1
102
RTVSPropertyOp23
 70
     1
102
RTVSPropertyOp24
 70
     1
102
RTVSPropertyOp25
 70
     1
102
RTVSPropertyOp26
 70
     1
102
RTVSPropertyOp27
 70
     1
  0
XRECORD
  5
FFC
102
{ACAD_REACTORS
330
FFB
102
}
330
FFB
100
AcDbXrecord
280
     1
102
RTVSPropertyOp0
 70
     1
102
RTVSPropertyOp1
 70
     1
102
RTVSPropertyOp2
 70
     1
102
RTVSPropertyOp3
 70
     1
102
RTVSPropertyOp4
 70
     1
102
RTVSPropertyOp5
 70
     1
102
RTVSPropertyOp6
 70
     1
102
RTVSPropertyOp7
 70
     1
102
RTVSPropertyOp8
 70
     1
102
RTVSPropertyOp9
 70
     1
102
RTVSPropertyOp10
 70
     1
102
RTVSPropertyOp11
 70
     1
102
RTVSPropertyOp12
 70
     1
102
RTVSPropertyOp13
 70
     1
102
RTVSPropertyOp14
 70
     1
102
RTVSPropertyOp15
 70
     1
102
RTVSPropertyOp16
 70
     1
102
RTVSPropertyOp17
 70
     1
102
RTVSPropertyOp18
 70
     1
102
RTVSPropertyOp19
 70
     1
102
RTVSPropertyOp20
 70
     1
102
RTVSPropertyOp21
 70
     1
102
RTVSPropertyOp22
 70
     1
102
RTVSPropertyOp23
 70
     1
102
RTVSPropertyOp24
 70
     1
102
RTVSPropertyOp25
 70
     1
102
RTVSPropertyOp26
 70
     1
102
RTVSPropertyOp27
 70
     1
  0
DICTIONARY
  5
A08
102
{ACAD_REACTORS
330
A07
102
}
330
A07
100
AcDbDictionary
281
     1
  3
PH_GRPMEMBERS
350
A09
  0
PH_GROUP
  5
A0A
102
{ACAD_REACTORS
330
A07
102
}
330
A07
  0
PH_GROUP
  5
A09
102
{ACAD_REACTORS
330
A08
102
}
330
A08
  0
ENDSEC
  0
EOF
