  0
SECTION
  2
HEADER
  9
$ACADVER
  1
AC1015
  9
$ACADMAINTVER
 70
    20
  9
$DWGCODEPAGE
  3
ANSI_1252
  9
$INSBASE
 10
0.0
 20
0.0
 30
0.0
  9
$EXTMIN
 10
0.9914571021292886
 20
0.9781961671288854
 30
-0.0015258207003583
  9
$EXTMAX
 10
593.019032143191
 20
419.0127878408097
 30
0.0000000349246037
  9
$LIMMIN
 10
0.0
 20
0.0
  9
$LIMMAX
 10
420.0
 20
297.0
  9
$ORTHOMODE
 70
     1
  9
$REGENMODE
 70
     1
  9
$FILLMODE
 70
     1
  9
$QTEXTMODE
 70
     0
  9
$MIRRTEXT
 70
     0
  9
$LTSCALE
 40
0.4
  9
$ATTMODE
 70
     1
  9
$TEXTSIZE
 40
2.5
  9
$TRACEWID
 40
1.0
  9
$TEXTSTYLE
  7
STANDARD
  9
$CLAYER
  8
0
  9
$CELTYPE
  6
CONTINUOUS
  9
$CECOLOR
 62
     7
  9
$CELTSCALE
 40
1.0
  9
$DISPSILH
 70
     0
  9
$DIMSCALE
 40
1.0
  9
$DIMASZ
 40
3.72
  9
$DIMEXO
 40
0.0
  9
$DIMDLI
 40
7.0
  9
$DIMRND
 40
0.0
  9
$DIMDLE
 40
0.0
  9
$DIMEXE
 40
1.5
  9
$DIMTP
 40
0.0
  9
$DIMTM
 40
0.0
  9
$DIMTXT
 40
2.5
  9
$DIMCEN
 40
0.0
  9
$DIMTSZ
 40
0.0
  9
$DIMTOL
 70
     0
  9
$DIMLIM
 70
     0
  9
$DIMTIH
 70
     0
  9
$DIMTOH
 70
     0
  9
$DIMSE1
 70
     0
  9
$DIMSE2
 70
     0
  9
$DIMTAD
 70
     1
  9
$DIMZIN
 70
     8
  9
$DIMBLK
  1

  9
$DIMASO
 70
     1
  9
$DIMSHO
 70
     1
  9
$DIMPOST
  1

  9
$DIMAPOST
  1
"
  9
$DIMALT
 70
     0
  9
$DIMALTD
 70
     2
  9
$DIMALTF
 40
0.0393700787401575
  9
$DIMLFAC
 40
1.0
  9
$DIMTOFL
 70
     1
  9
$DIMTVP
 40
0.0
  9
$DIMTIX
 70
     0
  9
$DIMSOXD
 70
     0
  9
$DIMSAH
 70
     1
  9
$DIMBLK1
  1
_OPEN15
  9
$DIMBLK2
  1
_OPEN15
  9
$DIMSTYLE
  2
PHOENIX
  9
$DIMCLRD
 70
     1
  9
$DIMCLRE
 70
     1
  9
$DIMCLRT
 70
     5
  9
$DIMTFAC
 40
0.6666666666666666
  9
$DIMGAP
 40
1.0
  9
$DIMJUST
 70
     0
  9
$DIMSD1
 70
     0
  9
$DIMSD2
 70
     0
  9
$DIMTOLJ
 70
     1
  9
$DIMTZIN
 70
     8
  9
$DIMALTZ
 70
     0
  9
$DIMALTTZ
 70
     0
  9
$DIMUPT
 70
     1
  9
$DIMDEC
 70
     6
  9
$DIMTDEC
 70
     6
  9
$DIMALTU
 70
     2
  9
$DIMALTTD
 70
     2
  9
$DIMTXSTY
  7
STANDARD
  9
$DIMAUNIT
 70
     0
  9
$DIMADEC
 70
     0
  9
$DIMALTRND
 40
0.0
  9
$DIMAZIN
 70
     0
  9
$DIMDSEP
 70
    46
  9
$DIMATFIT
 70
     0
  9
$DIMFRAC
 70
     0
  9
$DIMLDRBLK
  1

  9
$DIMLUNIT
 70
     2
  9
$DIMLWD
 70
    -2
  9
$DIMLWE
 70
    -2
  9
$DIMTMOVE
 70
     0
  9
$LUNITS
 70
     2
  9
$LUPREC
 70
     4
  9
$SKETCHINC
 40
1.0
  9
$FILLETRAD
 40
0.0
  9
$AUNITS
 70
     0
  9
$AUPREC
 70
     0
  9
$MENU
  1
.
  9
$ELEVATION
 40
0.0
  9
$PELEVATION
 40
0.0
  9
$THICKNESS
 40
0.0
  9
$LIMCHECK
 70
     0
  9
$CHAMFERA
 40
10.0
  9
$CHAMFERB
 40
10.0
  9
$CHAMFERC
 40
0.0
  9
$CHAMFERD
 40
0.0
  9
$SKPOLY
 70
     0
  9
$TDCREATE
 40
2450973.592842477
  9
$TDUCREATE
 40
2450973.509509144
  9
$TDUPDATE
 40
2456783.544166782
  9
$TDUUPDATE
 40
2456783.460833449
  9
$TDINDWG
 40
0.0496990972
  9
$TDUSRTIMER
 40
0.0496990972
  9
$USRTIMER
 70
     1
  9
$ANGBASE
 50
0.0
  9
$ANGDIR
 70
     0
  9
$PDMODE
 70
    35
  9
$PDSIZE
 40
-2.0
  9
$PLINEWID
 40
0.0
  9
$SPLFRAME
 70
     0
  9
$SPLINETYPE
 70
     6
  9
$SPLINESEGS
 70
     8
  9
$HANDSEED
  5
FF2
  9
$SURFTAB1
 70
     6
  9
$SURFTAB2
 70
     6
  9
$SURFTYPE
 70
     6
  9
$SURFU
 70
     6
  9
$SURFV
 70
     6
  9
$UCSBASE
  2

  9
$UCSNAME
  2

  9
$UCSORG
 10
0.0
 20
0.0
 30
0.0
  9
$UCSXDIR
 10
1.0
 20
0.0
 30
0.0
  9
$UCSYDIR
 10
0.0
 20
1.0
 30
0.0
  9
$UCSORTHOREF
  2

  9
$UCSORTHOVIEW
 70
     0
  9
$UCSORGTOP
 10
0.0
 20
0.0
 30
0.0
  9
$UCSORGBOTTOM
 10
0.0
 20
0.0
 30
0.0
  9
$UCSORGLEFT
 10
0.0
 20
0.0
 30
0.0
  9
$UCSORGRIGHT
 10
0.0
 20
0.0
 30
0.0
  9
$UCSORGFRONT
 10
0.0
 20
0.0
 30
0.0
  9
$UCSORGBACK
 10
0.0
 20
0.0
 30
0.0
  9
$PUCSBASE
  2

  9
$PUCSNAME
  2

  9
$PUCSORG
 10
0.0
 20
0.0
 30
0.0
  9
$PUCSXDIR
 10
1.0
 20
0.0
 30
0.0
  9
$PUCSYDIR
 10
0.0
 20
1.0
 30
0.0
  9
$PUCSORTHOREF
  2

  9
$PUCSORTHOVIEW
 70
     0
  9
$PUCSORGTOP
 10
0.0
 20
0.0
 30
0.0
  9
$PUCSORGBOTTOM
 10
0.0
 20
0.0
 30
0.0
  9
$PUCSORGLEFT
 10
0.0
 20
0.0
 30
0.0
  9
$PUCSORGRIGHT
 10
0.0
 20
0.0
 30
0.0
  9
$PUCSORGFRONT
 10
0.0
 20
0.0
 30
0.0
  9
$PUCSORGBACK
 10
0.0
 20
0.0
 30
0.0
  9
$USERI1
 70
     0
  9
$USERI2
 70
     0
  9
$USERI3
 70
     0
  9
$USERI4
 70
     0
  9
$USERI5
 70
     0
  9
$USERR1
 40
0.0
  9
$USERR2
 40
0.0
  9
$USERR3
 40
0.0
  9
$USERR4
 40
0.0
  9
$USERR5
 40
0.0
  9
$WORLDVIEW
 70
     1
  9
$SHADEDGE
 70
     3
  9
$SHADEDIF
 70
    70
  9
$TILEMODE
 70
     1
  9
$MAXACTVP
 70
    16
  9
$PINSBASE
 10
0.0
 20
0.0
 30
0.0
  9
$PLIMCHECK
 70
     0
  9
$PEXTMIN
 10
1.000000000000000E+20
 20
1.000000000000000E+20
 30
1.000000000000000E+20
  9
$PEXTMAX
 10
-1.000000000000000E+20
 20
-1.000000000000000E+20
 30
-1.000000000000000E+20
  9
$PLIMMIN
 10
0.0
 20
0.0
  9
$PLIMMAX
 10
420.0
 20
297.0
  9
$UNITMODE
 70
     0
  9
$VISRETAIN
 70
     0
  9
$PLINEGEN
 70
     0
  9
$PSLTSCALE
 70
     1
  9
$TREEDEPTH
 70
  3020
  9
$CMLSTYLE
  2
STANDARD
  9
$CMLJUST
 70
     0
  9
$CMLSCALE
 40
1.0
  9
$PROXYGRAPHICS
 70
     1
  9
$MEASUREMENT
 70
     0
  9
$CELWEIGHT
370
    -1
  9
$ENDCAPS
280
     0
  9
$JOINSTYLE
280
     0
  9
$LWDISPLAY
290
     0
  9
$INSUNITS
 70
     0
  9
$HYPERLINKBASE
  1

  9
$STYLESHEET
  1
HP_Farbe_Dünn.ctb
  9
$XEDIT
290
     1
  9
$CEPSNTYPE
380
     0
  9
$PSTYLEMODE
290
     1
  9
$FINGERPRINTGUID
  2
{47280DED-1767-417D-AAD8-A0AABBA06F00}
  9
$VERSIONGUID
  2
{C0EF89D2-9698-4786-873F-30C209BF4EF6}
  9
$EXTNAMES
290
     1
  9
$PSVPSCALE
 40
0.0
  9
$OLESTARTUP
290
     0
  0
ENDSEC
  0
SECTION
  2
CLASSES
  0
CLASS
  1
PH_VARS
  2
PhoenixVars
  3
PHOENIX7010
 90
        0
280
     0
281
     0
  0
CLASS
  1
ACMESCOPE
  2
AcMeScope
  3
ACME_MODULE_NAME
 90
        0
280
     0
281
     0
  0
CLASS
  1
ACMECOMMANDHISTORY
  2
AcMeCommandHistory
  3
ACME_MODULE_NAME
 90
        0
280
     0
281
     0
  0
CLASS
  1
AcRfInsAdjusterMgr
  2
AcRfInsAdjusterMgr
  3
ACME_MODULE_NAME
 90
    32768
280
     0
281
     0
  0
CLASS
  1
ACGREFMASTER
  2
AcGrefMaster
  3
"AcadRfServer"
 90
        0
280
     0
281
     0
  0
CLASS
  1
AmiMaster
  2
AmiMaster
  3
"AmiServices"
 90
        0
280
     0
281
     0
  0
CLASS
  1
ACASGREFMASTER
  2
AcAsGrefMaster
  3
"AutoSurfResolver"
 90
        0
280
     0
281
     0
  0
CLASS
  1
ADAPPL
  2
AcAdAppl
  3
DesignerServices
 90
        0
280
     0
281
     0
  0
CLASS
  1
DEPMGR
  2
AcAdDepMgr
  3
DesignerServices
 90
        0
280
     0
281
     0
  0
CLASS
  1
PARAMMGR
  2
AcAdParamMgr
  3
DesignerServices
 90
        0
280
     0
281
     0
  0
CLASS
  1
PARAMSCOPE
  2
AcAdParamScope
  3
DesignerServices
 90
        0
280
     0
281
     0
  0
CLASS
  1
"IM_SYSVAR_MAN"
  2
AcImSysVarManager
  3
"ADAM"
 90
        0
280
     0
281
     0
  0
CLASS
  1
SYSTEM_VAR_INT
  2
AcImIntSysVar
  3
"ADAM"
 90
        0
280
     0
281
     0
  0
CLASS
  1
SYSTEM_VAR_REAL
  2
AcImRealSysVar
  3
"ADAM"
 90
        0
280
     0
281
     0
  0
CLASS
  1
SYSTEM_VAR_STR
  2
AcImStrSysVar
  3
"ADAM"
 90
        0
280
     0
281
     0
  0
CLASS
  1
NAMEDAPPL
  2
AcAdNamedAppl
  3
DesignerServices
 90
        0
280
     0
281
     0
  0
CLASS
  1
ADPART
  2
AcAdPart
  3
DesignerServices
 90
    32768
280
     0
281
     1
  0
CLASS
  1
ADBASE
  2
AcAdBase
  3
DesignerServices
 90
        0
280
     0
281
     0
  0
CLASS
  1
BODYID
  2
AcAdBodyId
  3
DesignerServices
 90
        0
280
     0
281
     0
  0
CLASS
  1
WORKPLANEDISPLAYMGR
  2
AcAdDisplayMgr
  3
DesignerServices
 90
        0
280
     0
281
     0
  0
CLASS
  1
ADHNTMPLT
  2
AdHoleNoteTemplateMgr
  3
DesignerServices
 90
        0
280
     0
281
     0
  0
CLASS
  1
AM_HNTEMPLATE_MGR_NAME
  2
AdHoleNoteTemplateMgrName
  3
DesignerServices
 90
        0
280
     0
281
     0
  0
CLASS
  1
AcAdGrefModule
  2
AcAdGrefModule
  3
AD_GREF_SERVICES_NSTR
 90
        0
280
     0
281
     0
  0
CLASS
  1
AM_DRAWING_MGR
  2
AcDmDwgMgr
  3
AcMechDwgViewMgmt
 90
        0
280
     0
281
     0
  0
CLASS
  1
AM_DWG_DOCUMENT
  2
AcDmDwgDocument
  3
AcMechDwgViewMgmt
 90
        0
280
     0
281
     0
  0
CLASS
  1
AM_DWG_SHEET
  2
AcDmSheet
  3
AcMechDwgViewMgmt
 90
        0
280
     0
281
     0
  0
CLASS
  1
AM_VIEWDIMPARMAP
  2
AcDmViewDimParMap
  3
AcMechDwgViewMgmt
 90
        0
280
     0
281
     0
  0
CLASS
  1
AM_DWGMGR_NAME
  2
AcDmDwgMgrName
  3
AcMechDwgViewMgmt
 90
        0
280
     0
281
     0
  0
CLASS
  1
ACAMPROJECT
  2
AcAmProject
  3
DesignerAssemblies
 90
        0
280
     0
281
     0
  0
CLASS
  1
ACAMGRCOMPSET
  2
AcAmGrCompSet
  3
DesignerAssemblies
 90
    32768
280
     0
281
     0
  0
CLASS
  1
ACAMGRCOMPDEFSET
  2
AcAmGrCompDefSet
  3
DesignerAssemblies
 90
    32768
280
     0
281
     0
  0
CLASS
  1
ACAMGRCOMPDEF
  2
AcAmGrCompDef
  3
DesignerAssemblies
 90
        0
280
     0
281
     0
  0
CLASS
  1
ACAMCOMPDEF
  2
AcAmCompDef
  3
DesignerAssemblies
 90
        0
280
     0
281
     0
  0
CLASS
  1
ACAMCOMPDEFMGR
  2
AcAmCompDefMgr
  3
DesignerAssemblies
 90
        0
280
     0
281
     0
  0
CLASS
  1
AMCONTEXTMGR
  2
AcAmContextMgr
  3
DesignerAssemblies
 90
        0
280
     0
281
     0
  0
CLASS
  1
ACAMCONTEXTMODELER
  2
AcAmContextModeler
  3
DesignerAssemblies
 90
        0
280
     0
281
     0
  0
CLASS
  1
ACAMDRAWINGMAN
  2
AcAmDrawingMan
  3
DesignerAssemblies
 90
        0
280
     0
281
     0
  0
CLASS
  1
ACDMVIEWGEOM
  2
AcDmViewGeometry
  3
AcMechDwgViewMgmt
 90
    32768
280
     0
281
     1
  0
CLASS
  1
ASSYSVARS
  2
AcAsSysVars
  3
"AutoSurf"
 90
        0
280
     0
281
     0
  0
CLASS
  1
ASSTATICVARS
  2
AcAsStaticVars
  3
"AutoSurf"
 90
    32768
280
     0
281
     0
  0
CLASS
  1
ASAPP
  2
AcAsAppObject
  3
"AutoSurf"
 90
        0
280
     0
281
     0
  0
CLASS
  1
AGDICTIONARY
  2
AgDictionary
  3
"AccelView"
 90
        0
280
     0
281
     0
  0
CLASS
  1
PH_ENTDIMREACTOR
  2
EntDimReactor
  3
PHOENIX7010
 90
    32768
280
     0
281
     0
  0
CLASS
  1
PH_DIMENTREACTOR
  2
DimEntReactor
  3
PHOENIX7010
 90
    32768
280
     0
281
     0
  0
CLASS
  1
ACDBDICTIONARYWDFLT
  2
AcDbDictionaryWithDefault
  3
ObjectDBX Classes
 90
        0
280
     0
281
     0
  0
CLASS
  1
MATERIAL
  2
AcDbMaterial
  3
ObjectDBX Classes
 90
     1153
280
     0
281
     0
  0
CLASS
  1
VISUALSTYLE
  2
AcDbVisualStyle
  3
ObjectDBX Classes
 90
     4095
280
     0
281
     0
  0
CLASS
  1
TABLESTYLE
  2
AcDbTableStyle
  3
ObjectDBX Classes
 90
     4095
280
     0
281
     0
  0
CLASS
  1
SCALE
  2
AcDbScale
  3
ObjectDBX Classes
 90
     1153
280
     0
281
     0
  0
CLASS
  1
MLEADERSTYLE
  2
AcDbMLeaderStyle
  3
ACDB_MLEADERSTYLE_CLASS
 90
     4095
280
     0
281
     0
  0
CLASS
  1
PH_GROUP
  2
PhGroup
  3
PHOENIX7010
 90
        0
280
     0
281
     0
  0
CLASS
  1
CELLSTYLEMAP
  2
AcDbCellStyleMap
  3
ObjectDBX Classes
 90
     1152
280
     0
281
     0
  0
CLASS
  1
DICTIONARYVAR
  2
AcDbDictionaryVar
  3
ObjectDBX Classes
 90
        0
280
     0
281
     0
  0
CLASS
  1
PDFDEFINITION
  2
AcDbPdfDefinition
  3
ObjectDBX Classes
 90
     1153
280
     0
281
     0
  0
CLASS
  1
PDFUNDERLAY
  2
AcDbPdfReference
  3
ObjectDBX Classes
 90
     1153
280
     0
281
     1
  0
CLASS
  1
ACDBPLACEHOLDER
  2
AcDbPlaceHolder
  3
ObjectDBX Classes
 90
        0
280
     0
281
     0
  0
CLASS
  1
LAYOUT
  2
AcDbLayout
  3
ObjectDBX Classes
 90
        0
280
     0
281
     0
  0
ENDSEC
  0
SECTION
  2
TABLES
  0
TABLE
  2
VPORT
  5
8
102
{ACAD_XDICTIONARY
360
D39
102
}
330
0
100
AcDbSymbolTable
 70
     1
  0
VPORT
  5
B2F
330
8
100
AcDbSymbolTableRecord
100
AcDbViewportTableRecord
  2
*ACTIVE
 70
     0
 10
0.0
 20
0.0
 11
1.0
 21
1.0
 12
297.0052446226603
 22
209.9954920039693
 13
0.0
 23
0.0
 14
10.0
 24
10.0
 15
10.0
 25
10.0
 16
0.0
 26
0.0
 36
1.0
 17
0.0
 27
0.0
 37
0.0
 40
420.9376096714147
 41
1.746234067207415
 42
50.0
 43
0.0
 44
0.0
 50
0.0
 51
0.0
 71
     0
 72
   800
 73
     1
 74
     3
 75
     0
 76
     0
 77
     0
 78
     0
281
     0
 65
     1
110
0.0
120
0.0
130
0.0
111
1.0
121
0.0
131
0.0
112
0.0
122
1.0
132
0.0
 79
     0
146
0.0
  0
ENDTAB
  0
TABLE
  2
LTYPE
  5
5
330
0
100
AcDbSymbolTable
 70
    10
  0
LTYPE
  5
14
330
5
100
AcDbSymbolTableRecord
100
AcDbLinetypeTableRecord
  2
BYBLOCK
 70
     0
  3

 72
    65
 73
     0
 40
0.0
  0
LTYPE
  5
15
330
5
100
AcDbSymbolTableRecord
100
AcDbLinetypeTableRecord
  2
BYLAYER
 70
     0
  3

 72
    65
 73
     0
 40
0.0
  0
LTYPE
  5
16
330
5
100
AcDbSymbolTableRecord
100
AcDbLinetypeTableRecord
  2
CONTINUOUS
 70
     0
  3
Solid line
 72
    65
 73
     0
 40
0.0
  0
LTYPE
  5
A8
330
5
100
AcDbSymbolTableRecord
100
AcDbLinetypeTableRecord
  2
PHANTOM2
 70
     0
  3
___ _ _ ___ _ _ ___ _ _ ___ _ _ ___ _ _ ___ _ _
 72
    65
 73
     6
 40
1.25
 49
0.625
 74
     0
 49
-0.125
 74
     0
 49
0.125
 74
     0
 49
-0.125
 74
     0
 49
0.125
 74
     0
 49
-0.125
 74
     0
  0
LTYPE
  5
D5
330
5
100
AcDbSymbolTableRecord
100
AcDbLinetypeTableRecord
  2
ASULTYPE
 70
     0
  3
Ausgezogene Linie
 72
    65
 73
     2
 40
3.0
 49
2.5
 74
     0
 49
0.5
 74
     0
  0
LTYPE
  5
D6
330
5
100
AcDbSymbolTableRecord
100
AcDbLinetypeTableRecord
  2
ASVLTYPE
 70
     0
  3
__ __ __ __ __ __ __ __ __ __ __ __ __ __ __ __ __ __ __ __ __
 72
    65
 73
     2
 40
0.75
 49
0.5
 74
     0
 49
-0.25
 74
     0
  0
LTYPE
  5
D8
330
5
100
AcDbSymbolTableRecord
100
AcDbLinetypeTableRecord
  2
VERDECKT
 70
     0
  3
__ __ __ __ __ __ __ __ __ __ __ __ __ __ __ __
 72
    65
 73
     2
 40
0.375
 49
0.25
 74
     0
 49
-0.125
 74
     0
  0
LTYPE
  5
D9
330
5
100
AcDbSymbolTableRecord
100
AcDbLinetypeTableRecord
  2
MITTE
 70
     0
  3
____ _ ____ _ ____ _ ____ _ ____ _ ____ _ ____ 
 72
    65
 73
     4
 40
2.0
 49
1.25
 74
     0
 49
-0.25
 74
     0
 49
0.25
 74
     0
 49
-0.25
 74
     0
  0
LTYPE
  5
684
330
5
100
AcDbSymbolTableRecord
100
AcDbLinetypeTableRecord
  2
ACAD_ISO02W100
 70
     0
  3
__ __ __ __ __ __ __ __ __ __ __ __ __ __ __ __
 72
    65
 73
     2
 40
15.0
 49
12.0
 74
     0
 49
-3.0
 74
     0
  0
LTYPE
  5
685
330
5
100
AcDbSymbolTableRecord
100
AcDbLinetypeTableRecord
  2
ACAD_ISO04W100
 70
     0
  3
____ . ____ . ____ . ____ . ____ . ____ . ____ 
 72
    65
 73
     4
 40
30.5
 49
24.0
 74
     0
 49
-3.0
 74
     0
 49
0.5
 74
     0
 49
-3.0
 74
     0
  0
LTYPE
  5
686
330
5
100
AcDbSymbolTableRecord
100
AcDbLinetypeTableRecord
  2
ACAD_ISO05W100
 70
     0
  3
____ .. ____ .. ____ .. ____ .. ____ .. ____ ..
 72
    65
 73
     6
 40
34.0
 49
24.0
 74
     0
 49
-3.0
 74
     0
 49
0.5
 74
     0
 49
-3.0
 74
     0
 49
0.5
 74
     0
 49
-3.0
 74
     0
  0
LTYPE
  5
687
330
5
100
AcDbSymbolTableRecord
100
AcDbLinetypeTableRecord
  2
ACAD_ISO07W100
 70
     0
  3
. . . . . . . . . . . . . . . . . . . . . . . .
 72
    65
 73
     2
 40
3.5
 49
0.5
 74
     0
 49
-3.0
 74
     0
  0
ENDTAB
  0
TABLE
  2
LAYER
  5
2
102
{ACAD_XDICTIONARY
360
C42
102
}
330
0
100
AcDbSymbolTable
 70
    17
  0
LAYER
  5
F
102
{ACAD_XDICTIONARY
360
BB6
102
}
330
2
100
AcDbSymbolTableRecord
100
AcDbLayerTableRecord
  2
0
 70
     0
 62
     7
  6
CONTINUOUS
370
    -3
390
B32
  0
LAYER
  5
44
102
{ACAD_XDICTIONARY
360
BB8
102
}
330
2
100
AcDbSymbolTableRecord
100
AcDbLayerTableRecord
  2
4
 70
     0
 62
     7
  6
CONTINUOUS
370
    -3
390
B32
  0
LAYER
  5
48
102
{ACAD_XDICTIONARY
360
BBA
102
}
330
2
100
AcDbSymbolTableRecord
100
AcDbLayerTableRecord
  2
2
 70
     0
 62
     7
  6
CONTINUOUS
370
    -3
390
B32
  0
LAYER
  5
4A
102
{ACAD_XDICTIONARY
360
BBC
102
}
330
2
100
AcDbSymbolTableRecord
100
AcDbLayerTableRecord
  2
3
 70
     0
 62
     7
  6
CONTINUOUS
370
    -3
390
B32
  0
LAYER
  5
B6
102
{ACAD_XDICTIONARY
360
BBE
102
}
330
2
100
AcDbSymbolTableRecord
100
AcDbLayerTableRecord
  2
AM_VIEWS
 70
     0
 62
    -7
  6
CONTINUOUS
370
    -3
390
B32
  0
LAYER
  5
B7
102
{ACAD_XDICTIONARY
360
BC0
102
}
330
2
100
AcDbSymbolTableRecord
100
AcDbLayerTableRecord
  2
AM_PARDIM
 70
     0
 62
     3
  6
CONTINUOUS
370
    -3
390
B32
  0
LAYER
  5
B8
102
{ACAD_XDICTIONARY
360
BC2
102
}
330
2
100
AcDbSymbolTableRecord
100
AcDbLayerTableRecord
  2
AM_REFDIM
 70
     0
 62
     4
  6
CONTINUOUS
370
    -3
390
B32
  0
LAYER
  5
B9
102
{ACAD_XDICTIONARY
360
BC4
102
}
330
2
100
AcDbSymbolTableRecord
100
AcDbLayerTableRecord
  2
AM_VIS
 70
     0
 62
     7
  6
CONTINUOUS
370
    -3
390
B32
  0
LAYER
  5
BA
102
{ACAD_XDICTIONARY
360
BC6
102
}
330
2
100
AcDbSymbolTableRecord
100
AcDbLayerTableRecord
  2
AM_HID
 70
     0
 62
     7
  6
VERDECKT
370
    -3
390
B32
  0
LAYER
  5
CB
102
{ACAD_XDICTIONARY
360
BC8
102
}
330
2
100
AcDbSymbolTableRecord
100
AcDbLayerTableRecord
  2
AM_TR
 70
     0
 62
     7
  6
CONTINUOUS
370
    -3
390
B32
  0
LAYER
  5
CC
102
{ACAD_XDICTIONARY
360
BCA
102
}
330
2
100
AcDbSymbolTableRecord
100
AcDbLayerTableRecord
  2
AM_BM
 70
     0
 62
     7
  6
CONTINUOUS
370
    -3
390
B32
  0
LAYER
  5
CD
102
{ACAD_XDICTIONARY
360
BCC
102
}
330
2
100
AcDbSymbolTableRecord
100
AcDbLayerTableRecord
  2
AM_BL
 70
     0
 62
     7
  6
CONTINUOUS
370
    -3
390
B32
  0
LAYER
  5
EB
330
2
100
AcDbSymbolTableRecord
100
AcDbLayerTableRecord
  2
DEFPOINTS
 70
     0
 62
     7
  6
CONTINUOUS
290
     0
370
    -3
390
B32
  0
LAYER
  5
68B
102
{ACAD_XDICTIONARY
360
BCE
102
}
330
2
100
AcDbSymbolTableRecord
100
AcDbLayerTableRecord
  2
HAUPTEBENE
 70
     0
 62
     7
  6
CONTINUOUS
370
    -3
390
B32
  0
LAYER
  5
68F
102
{ACAD_XDICTIONARY
360
BD0
102
}
330
2
100
AcDbSymbolTableRecord
100
AcDbLayerTableRecord
  2
BEMASSUNG2
 70
     0
 62
     7
  6
CONTINUOUS
370
    -3
390
B32
  0
LAYER
  5
6A1
102
{ACAD_XDICTIONARY
360
BD2
102
}
330
2
100
AcDbSymbolTableRecord
100
AcDbLayerTableRecord
  2
BEMASSUNG
 70
     0
 62
     7
  6
CONTINUOUS
370
    -3
390
B32
  0
LAYER
  5
C2D
330
2
100
AcDbSymbolTableRecord
100
AcDbLayerTableRecord
  2
PH_HILFSELEMENTE
 70
     0
 62
    -7
  6
CONTINUOUS
370
    -3
390
B32
  0
ENDTAB
  0
TABLE
  2
STYLE
  5
3
330
0
100
AcDbSymbolTable
 70
     2
  0
STYLE
  5
10
330
3
100
AcDbSymbolTableRecord
100
AcDbTextStyleTableRecord
  2
STANDARD
 70
     0
 40
0.0
 41
1.199999999999999
 50
0.0
 71
     0
 42
2.5
  3
ISOCP.shx
  4

  0
STYLE
  5
68A
330
3
100
AcDbSymbolTableRecord
100
AcDbTextStyleTableRecord
  2
ISO3098-1
 70
     0
 40
0.0
 41
1.0
 50
0.0
 71
     0
 42
0.0
  3
isoct.shx
  4

  0
ENDTAB
  0
TABLE
  2
VIEW
  5
6
330
0
100
AcDbSymbolTable
 70
     0
  0
ENDTAB
  0
TABLE
  2
UCS
  5
7
330
0
100
AcDbSymbolTable
 70
     0
  0
ENDTAB
  0
TABLE
  2
APPID
  5
9
330
0
100
AcDbSymbolTable
 70
    11
  0
APPID
  5
11
330
9
100
AcDbSymbolTableRecord
100
AcDbRegAppTableRecord
  2
ACAD
 70
     0
  0
APPID
  5
32
330
9
100
AcDbSymbolTableRecord
100
AcDbRegAppTableRecord
  2
PHOENIX7010
 70
     0
  0
APPID
  5
B5
330
9
100
AcDbSymbolTableRecord
100
AcDbRegAppTableRecord
  2
AD_DRAW
 70
     0
  0
APPID
  5
CF
330
9
100
AcDbSymbolTableRecord
100
AcDbRegAppTableRecord
  2
DESIGNERASSEMBLIES
 70
     0
  0
APPID
  5
D1
330
9
100
AcDbSymbolTableRecord
100
AcDbRegAppTableRecord
  2
MCAD_NO_VIS
 70
     0
  0
APPID
  5
D7
330
9
100
AcDbSymbolTableRecord
100
AcDbRegAppTableRecord
  2
ASURF_PCURVE_APPNAME
 70
     0
  0
APPID
  5
C41
330
9
100
AcDbSymbolTableRecord
100
AcDbRegAppTableRecord
  2
ACAD_PSEXT
 70
     0
  0
APPID
  5
C91
330
9
100
AcDbSymbolTableRecord
100
AcDbRegAppTableRecord
  2
AcadAnnoPO
 70
     0
  0
APPID
  5
C92
330
9
100
AcDbSymbolTableRecord
100
AcDbRegAppTableRecord
  2
ACAD_EXEMPT_FROM_CAD_STANDARDS
 70
     0
  0
APPID
  5
CE6
330
9
100
AcDbSymbolTableRecord
100
AcDbRegAppTableRecord
  2
AdeskUnderlayLayerOverrideData
 70
     0
  0
APPID
  5
D65
330
9
100
AcDbSymbolTableRecord
100
AcDbRegAppTableRecord
  2
ACAD_MLEADERVER
 70
     0
  0
ENDTAB
  0
TABLE
  2
DIMSTYLE
  5
A
330
0
100
AcDbSymbolTable
 70
    10
100
AcDbDimStyleTable
 71
     1
340
33
  0
DIMSTYLE
105
1D
330
A
100
AcDbSymbolTableRecord
100
AcDbDimStyleTableRecord
  2
STANDARD
 70
     0
340
10
  0
DIMSTYLE
105
24
330
A
100
AcDbSymbolTableRecord
100
AcDbDimStyleTableRecord
  2
ISO-25
 70
     0
 41
2.5
 42
0.625
 43
3.75
 44
1.25
 74
     0
 77
     1
 78
     8
140
2.5
141
2.5
143
0.0394
145
1.0
147
0.625
172
     1
340
10
  0
DIMSTYLE
105
25
330
A
100
AcDbSymbolTableRecord
100
AcDbDimStyleTableRecord
  2
ISO-35
 70
     0
 41
3.5
 42
0.875
 43
5.25
 44
1.75
 74
     0
 77
     1
 78
     8
140
3.5
141
3.5
143
0.0394
145
1.399999999999999
147
0.875
172
     1
340
10
  0
DIMSTYLE
105
26
330
A
100
AcDbSymbolTableRecord
100
AcDbDimStyleTableRecord
  2
ISO-5
 70
     0
 41
5.0
 42
1.25
 43
7.5
 44
2.5
 74
     0
 77
     1
 78
     8
140
5.0
141
5.0
143
0.0394
145
2.0
147
1.25
172
     1
340
10
  0
DIMSTYLE
105
27
330
A
100
AcDbSymbolTableRecord
100
AcDbDimStyleTableRecord
  2
ISO-7
 70
     0
 41
7.0
 42
1.75
 43
10.5
 44
3.5
 74
     0
 77
     1
 78
     8
140
7.0
141
7.0
143
0.0394
145
2.799999999999999
147
1.75
172
     1
340
10
  0
DIMSTYLE
105
28
330
A
100
AcDbSymbolTableRecord
100
AcDbDimStyleTableRecord
  2
ISO1
 70
     0
 41
10.0
 42
2.5
 43
15.0
 44
5.0
 74
     0
 77
     1
 78
     8
140
10.0
141
10.0
143
0.0394
145
4.0
147
2.5
172
     1
340
10
  0
DIMSTYLE
105
29
330
A
100
AcDbSymbolTableRecord
100
AcDbDimStyleTableRecord
  2
ISO1-4
 70
     0
 41
14.0
 42
3.5
 43
21.0
 44
7.0
 74
     0
 77
     1
 78
     8
140
14.0
141
14.0
143
0.0394
145
5.599999999999999
147
3.5
172
     1
340
10
  0
DIMSTYLE
105
2A
330
A
100
AcDbSymbolTableRecord
100
AcDbDimStyleTableRecord
  2
ISO2
 70
     0
 41
20.0
 42
5.0
 43
30.0
 44
10.0
 74
     0
 77
     1
 78
     8
140
20.0
141
20.0
143
0.0394
145
8.0
147
5.0
172
     1
340
10
  0
DIMSTYLE
105
33
330
A
100
AcDbSymbolTableRecord
100
AcDbDimStyleTableRecord
  2
PHOENIX
 70
     0
  4
"
 41
3.72
 42
0.0
 43
7.0
 44
1.5
 73
     0
 74
     0
 77
     1
 78
     8
140
3.5
141
0.0
143
0.0393700787401575
146
0.6666666666666666
147
2.0
172
     1
173
     1
176
     1
177
     1
178
     5
271
     2
272
     2
284
     8
288
     1
289
     0
340
10
341
35
343
35
344
35
  0
DIMSTYLE
105
34
330
A
100
AcDbSymbolTableRecord
100
AcDbDimStyleTableRecord
  2
PHOENIX$4
 70
     0
  4
"
 41
3.72
 42
0.0
 43
7.0
 44
1.5
 73
     0
 74
     0
 77
     1
 78
     8
140
3.5
141
0.0
143
0.0393700787401575
146
0.6666666666666666
147
2.0
173
     1
176
     1
177
     1
178
     5
271
     2
272
     2
281
     1
284
     8
288
     1
289
     0
340
10
341
35
343
35
344
35
  0
ENDTAB
  0
TABLE
  2
BLOCK_RECORD
  5
1
330
0
100
AcDbSymbolTable
 70
     3
  0
BLOCK_RECORD
  5
1A
330
1
100
AcDbSymbolTableRecord
100
AcDbBlockTableRecord
  2
*MODEL_SPACE
340
B89
  0
BLOCK_RECORD
  5
17
330
1
100
AcDbSymbolTableRecord
100
AcDbBlockTableRecord
  2
*PAPER_SPACE
340
B8A
  0
BLOCK_RECORD
  5
35
330
1
100
AcDbSymbolTableRecord
100
AcDbBlockTableRecord
  2
_OPEN15
340
0
  0
BLOCK_RECORD
  5
C3
330
1
100
AcDbSymbolTableRecord
100
AcDbBlockTableRecord
  2
*U1
340
0
  0
BLOCK_RECORD
  5
C19
330
1
100
AcDbSymbolTableRecord
100
AcDbBlockTableRecord
  2
PH_GRPBLK
340
0
102
{BLKREFS
331
C3E
331
C4B
331
C4E
331
C86
102
}
  0
ENDTAB
  0
ENDSEC
  0
SECTION
  2
BLOCKS
  0
BLOCK
  5
1B
330
1A
100
AcDbEntity
  8
0
100
AcDbBlockBegin
  2
*MODEL_SPACE
 70
     0
 10
0.0
 20
0.0
 30
0.0
  3
*MODEL_SPACE
  1

  0
ENDBLK
  5
1C
330
1A
100
AcDbEntity
  8
0
100
AcDbBlockEnd
  0
BLOCK
  5
18
330
17
100
AcDbEntity
 67
     1
  8
0
100
AcDbBlockBegin
  2
*PAPER_SPACE
 70
     0
 10
0.0
 20
0.0
 30
0.0
  3
*PAPER_SPACE
  1

  0
ENDBLK
  5
19
330
17
100
AcDbEntity
 67
     1
  8
0
100
AcDbBlockEnd
  0
BLOCK
  5
39
330
35
100
AcDbEntity
  8
0
  6
Continuous
 62
     7
100
AcDbBlockBegin
  2
_OPEN15
 70
     0
 10
1.0
 20
0.0
 30
0.0
  3
_OPEN15
  1

  0
LINE
  5
36
330
35
100
AcDbEntity
  8
0
  6
ByBlock
 62
     0
100
AcDbLine
 10
0.0
 20
0.0
 30
0.0
 11
1.0
 21
0.0
 31
0.0
  0
LINE
  5
37
330
35
100
AcDbEntity
  8
0
  6
ByBlock
 62
     0
100
AcDbLine
 10
1.0
 20
0.0
 30
0.0
 11
0.0
 21
0.1316524975873958
 31
0.0
  0
LINE
  5
38
330
35
100
AcDbEntity
  8
0
  6
ByBlock
 62
     0
100
AcDbLine
 10
1.0
 20
0.0
 30
0.0
 11
0.0
 21
-0.1316524975873958
 31
0.0
  0
ENDBLK
  5
3A
330
35
100
AcDbEntity
  8
0
  6
Continuous
 62
     7
100
AcDbBlockEnd
  0
BLOCK
  5
C4
330
C3
100
AcDbEntity
  8
0
  6
Continuous
 62
     7
100
AcDbBlockBegin
  2
*U1
 70
     1
 10
0.0
 20
0.0
 30
0.0
  3
*U1
  1

  0
ENDBLK
  5
C5
330
C3
100
AcDbEntity
  8
0
  6
Continuous
 62
     7
100
AcDbBlockEnd
  0
BLOCK
  5
C1A
330
C19
100
AcDbEntity
  8
0
 62
     7
370
    50
100
AcDbBlockBegin
  2
PH_GRPBLK
 70
     0
 10
0.0
 20
0.0
 30
0.0
  3
PH_GRPBLK
  1

  0
POINT
  5
C1B
330
C19
100
AcDbEntity
  8
DEFPOINTS
  6
Continuous
 62
     0
370
    50
100
AcDbPoint
 10
0.0
 20
0.0
 30
0.0
  0
ENDBLK
  5
C1C
330
C19
100
AcDbEntity
  8
0
 62
     7
370
    50
100
AcDbBlockEnd
  0
ENDSEC
  0
SECTION
  2
ENTITIES
  0
TEXT
  5
6BE
102
{ACAD_REACTORS
330
B90
102
}
330
1A
100
AcDbEntity
  8
HAUPTEBENE
  6
Continuous
 62
     5
100
AcDbText
 10
397.3495310298231
 20
194.2115094390629
 30
0.0
 40
5.0
  1

 50
179.99999731885
 41
1.5
100
AcDbText
1001
PHOENIX7010
1002
{
1070
    62
1070
     5
1070
    41
1040
1.0
1002
}
  0
TEXT
  5
6BF
102
{ACAD_REACTORS
330
B90
102
}
330
1A
100
AcDbEntity
  8
HAUPTEBENE
  6
Continuous
 62
     5
100
AcDbText
 10
393.6224262497727
 20
204.2115093817392
 30
0.0
 40
5.0
  1
3
 50
359.9999973188484
 41
1.5
100
AcDbText
1001
PHOENIX7010
1002
{
1070
    62
1070
     5
1070
    41
1040
1.0
1002
}
  0
LINE
  5
6C0
102
{ACAD_REACTORS
330
B90
102
}
330
1A
100
AcDbEntity
  8
BEMASSUNG2
  6
Continuous
 62
     1
100
AcDbLine
 10
403.3495312924594
 20
201.711509410401
 30
0.0
 11
406.3495312924594
 21
201.711509410401
 31
0.0
1001
PHOENIX7010
1002
{
1070
    62
1070
     1
1070
    41
1040
1.0
1002
}
  0
LINE
  5
6C3
102
{ACAD_REACTORS
330
B8E
102
}
330
1A
100
AcDbEntity
  8
BEMASSUNG2
  6
Continuous
 62
     1
100
AcDbLine
 10
403.3495312924594
 20
201.711509410401
 30
0.0
 11
400.3751967024594
 21
202.1030879804011
 31
0.0
1001
PHOENIX7010
1002
{
1070
    62
1070
     1
1070
    41
1040
1.0
1002
}
  0
LINE
  5
6C4
102
{ACAD_REACTORS
330
B8E
102
}
330
1A
100
AcDbEntity
  8
BEMASSUNG2
  6
Continuous
 62
     1
100
AcDbLine
 10
403.3495312924594
 20
201.711509410401
 30
0.0
 11
400.3751967024594
 21
201.319930850401
 31
0.0
1001
PHOENIX7010
1002
{
1070
    62
1070
     1
1070
    41
1040
1.0
1002
}
  0
LINE
  5
6C5
102
{ACAD_REACTORS
330
B90
102
}
330
1A
100
AcDbEntity
  8
BEMASSUNG2
  6
Continuous
 62
     1
100
AcDbLine
 10
393.3495312924594
 20
201.711509410401
 30
0.0
 11
403.3495312924594
 21
201.711509410401
 31
0.0
1001
PHOENIX7010
1002
{
1070
    62
1070
     1
1070
    41
1040
1.0
1002
}
  0
LINE
  5
6C8
102
{ACAD_REACTORS
330
B8F
102
}
330
1A
100
AcDbEntity
  8
BEMASSUNG2
  6
Continuous
 62
     1
100
AcDbLine
 10
406.3495312924594
 20
201.711509410401
 30
0.0
 11
409.3238658724594
 21
201.319930850401
 31
0.0
1001
PHOENIX7010
1002
{
1070
    62
1070
     1
1070
    41
1040
1.0
1002
}
  0
LINE
  5
6C9
102
{ACAD_REACTORS
330
B8F
102
}
330
1A
100
AcDbEntity
  8
BEMASSUNG2
  6
Continuous
 62
     1
100
AcDbLine
 10
406.3495312924594
 20
201.711509410401
 30
0.0
 11
409.3238658724594
 21
202.1030879804011
 31
0.0
1001
PHOENIX7010
1002
{
1070
    62
1070
     1
1070
    41
1040
1.0
1002
}
  0
LINE
  5
6CA
102
{ACAD_REACTORS
330
B90
102
}
330
1A
100
AcDbEntity
  8
BEMASSUNG2
  6
Continuous
 62
     1
100
AcDbLine
 10
416.3495312924593
 20
201.711509410401
 30
0.0
 11
406.3495312924594
 21
201.711509410401
 31
0.0
1001
PHOENIX7010
1002
{
1070
    62
1070
     1
1070
    41
1040
1.0
1002
}
  0
LINE
  5
6CB
102
{ACAD_REACTORS
330
B90
102
}
330
1A
100
AcDbEntity
  8
BEMASSUNG2
  6
Continuous
 62
     1
100
AcDbLine
 10
403.3495312924594
 20
213.711509410401
 30
0.0
 11
403.3495312924594
 21
199.711509410401
 31
0.0
1001
PHOENIX7010
1002
{
1070
    62
1070
     1
1070
    41
1040
1.0
1002
}
  0
TEXT
  5
6CE
102
{ACAD_REACTORS
330
B92
102
}
330
1A
100
AcDbEntity
  8
HAUPTEBENE
  6
Continuous
 62
     5
100
AcDbText
 10
349.8495312924595
 20
225.6114727904011
 30
0.0
 40
5.0
  1

 50
90.0
 41
1.5
100
AcDbText
1001
PHOENIX7010
1002
{
1070
    62
1070
     5
1070
    41
1040
1.0
1002
}
  0
TEXT
  5
6CF
102
{ACAD_REACTORS
330
B92
102
}
330
1A
100
AcDbEntity
  8
HAUPTEBENE
  6
Continuous
 62
     5
100
AcDbText
 10
358.5436165419888
 20
225.6114727904011
 30
0.0
 40
5.0
  1
2
 50
90.0
 41
1.5
100
AcDbText
1001
PHOENIX7010
1002
{
1070
    62
1070
     5
1070
    41
1040
1.0
1002
}
  0
LINE
  5
6D0
102
{ACAD_REACTORS
330
B92
102
}
330
1A
100
AcDbEntity
  8
BEMASSUNG2
  6
Continuous
 62
     1
100
AcDbLine
 10
361.0436165419887
 20
235.1114727904011
 30
0.0
 11
361.0436165419887
 21
237.1114727904011
 31
0.0
1001
PHOENIX7010
1002
{
1070
    62
1070
     1
1070
    41
1040
1.0
1002
}
  0
LINE
  5
6D3
102
{ACAD_REACTORS
330
B91
102
}
330
1A
100
AcDbEntity
  8
BEMASSUNG2
  6
Continuous
 62
     1
100
AcDbLine
 10
361.0436165419887
 20
235.1114727904011
 30
0.0
 11
360.6520379719887
 21
232.1371382104011
 31
0.0
1001
PHOENIX7010
1002
{
1070
    62
1070
     1
1070
    41
1040
1.0
1002
}
  0
LINE
  5
6D4
102
{ACAD_REACTORS
330
B91
102
}
330
1A
100
AcDbEntity
  8
BEMASSUNG2
  6
Continuous
 62
     1
100
AcDbLine
 10
361.0436165419887
 20
235.1114727904011
 30
0.0
 11
361.4351951019887
 21
232.1371382104011
 31
0.0
1001
PHOENIX7010
1002
{
1070
    62
1070
     1
1070
    41
1040
1.0
1002
}
  0
LINE
  5
6D5
102
{ACAD_REACTORS
330
B92
102
}
330
1A
100
AcDbEntity
  8
BEMASSUNG2
  6
Continuous
 62
     1
100
AcDbLine
 10
361.0436165419887
 20
225.1114727904011
 30
0.0
 11
361.0436165419887
 21
235.1114727904011
 31
0.0
1001
PHOENIX7010
1002
{
1070
    62
1070
     1
1070
    41
1040
1.0
1002
}
  0
LINE
  5
6D6
102
{ACAD_REACTORS
330
B92
102
}
330
1A
100
AcDbEntity
  8
BEMASSUNG2
  6
Continuous
 62
     1
100
AcDbLine
 10
371.9476147824594
 20
235.1114727904011
 30
0.0
 11
359.0436165419887
 21
235.1114727904011
 31
0.0
1001
PHOENIX7010
1002
{
1070
    62
1070
     1
1070
    41
1040
1.0
1002
}
  0
TEXT
  5
6D9
102
{ACAD_REACTORS
330
B94
102
}
330
1A
100
AcDbEntity
  8
HAUPTEBENE
  6
Continuous
 62
     5
100
AcDbText
 10
349.8495312924595
 20
245.6114727904011
 30
0.0
 40
5.0
  1

 50
90.0
 41
1.5
100
AcDbText
1001
PHOENIX7010
1002
{
1070
    62
1070
     5
1070
    41
1040
1.0
1002
}
  0
TEXT
  5
6DA
102
{ACAD_REACTORS
330
B94
102
}
330
1A
100
AcDbEntity
  8
HAUPTEBENE
  6
Continuous
 62
     5
100
AcDbText
 10
358.5436165419888
 20
245.6114727904011
 30
0.0
 40
5.0
  1
2
 50
90.0
 41
1.5
100
AcDbText
1001
PHOENIX7010
1002
{
1070
    62
1070
     5
1070
    41
1040
1.0
1002
}
  0
LINE
  5
6DB
102
{ACAD_REACTORS
330
B94
102
}
330
1A
100
AcDbEntity
  8
BEMASSUNG2
  6
Continuous
 62
     1
100
AcDbLine
 10
361.0436165419887
 20
239.1114727904011
 30
0.0
 11
361.0436165419887
 21
237.1114727904011
 31
0.0
1001
PHOENIX7010
1002
{
1070
    62
1070
     1
1070
    41
1040
1.0
1002
}
  0
LINE
  5
6DE
102
{ACAD_REACTORS
330
B93
102
}
330
1A
100
AcDbEntity
  8
BEMASSUNG2
  6
Continuous
 62
     1
100
AcDbLine
 10
361.0436165419887
 20
239.1114727904011
 30
0.0
 11
361.4351951019887
 21
242.0858073804011
 31
0.0
1001
PHOENIX7010
1002
{
1070
    62
1070
     1
1070
    41
1040
1.0
1002
}
  0
LINE
  5
6DF
102
{ACAD_REACTORS
330
B93
102
}
330
1A
100
AcDbEntity
  8
BEMASSUNG2
  6
Continuous
 62
     1
100
AcDbLine
 10
361.0436165419887
 20
239.1114727904011
 30
0.0
 11
360.6520379719887
 21
242.0858073804011
 31
0.0
1001
PHOENIX7010
1002
{
1070
    62
1070
     1
1070
    41
1040
1.0
1002
}
  0
LINE
  5
6E0
102
{ACAD_REACTORS
330
B94
102
}
330
1A
100
AcDbEntity
  8
BEMASSUNG2
  6
Continuous
 62
     1
100
AcDbLine
 10
361.0436165419887
 20
249.1114727904011
 30
0.0
 11
361.0436165419887
 21
239.1114727904011
 31
0.0
1001
PHOENIX7010
1002
{
1070
    62
1070
     1
1070
    41
1040
1.0
1002
}
  0
LINE
  5
6E1
102
{ACAD_REACTORS
330
B94
102
}
330
1A
100
AcDbEntity
  8
BEMASSUNG2
  6
Continuous
 62
     1
100
AcDbLine
 10
394.7495557024594
 20
239.111472790401
 30
0.0
 11
359.0436165419887
 21
239.1114727904011
 31
0.0
1001
PHOENIX7010
1002
{
1070
    62
1070
     1
1070
    41
1040
1.0
1002
}
  0
TEXT
  5
6E4
102
{ACAD_REACTORS
330
B95
102
}
330
1A
100
AcDbEntity
  8
HAUPTEBENE
  6
Continuous
 62
     5
100
AcDbText
 10
230.1648373110421
 20
100.1445233590629
 30
0.0
 40
5.0
  1

 50
179.99999731885
 41
1.5
100
AcDbText
1001
PHOENIX7010
1002
{
1070
    62
1070
     5
1070
    41
1040
1.0
1002
}
  0
TEXT
  5
6E5
102
{ACAD_REACTORS
330
B95
102
}
330
1A
100
AcDbEntity
  8
HAUPTEBENE
  6
Continuous
 62
     5
100
AcDbText
 10
211.1845834847051
 20
109.8887708196601
 30
0.0
 40
5.0
  1
%%c4,5
 50
359.99999731885
 41
1.5
100
AcDbText
1001
PHOENIX7010
1002
{
1070
    62
1070
     5
1070
    41
1040
1.0
1002
}
  0
LINE
  5
6E6
102
{ACAD_REACTORS
330
B95
102
}
330
1A
100
AcDbEntity
  8
HAUPTEBENE
  6
Continuous
 62
     1
100
AcDbLine
 10
207.6648375736785
 20
107.6445233304011
 30
0.0
 11
232.6648375736785
 21
107.6445233304011
 31
0.0
1001
PHOENIX7010
1002
{
1070
    62
1070
     1
1070
    41
1040
1.0
1002
}
  0
LINE
  5
6E7
102
{ACAD_REACTORS
330
B95
102
}
330
1A
100
AcDbEntity
  8
HAUPTEBENE
  6
Continuous
 62
     1
100
AcDbLine
 10
213.0897643336786
 20
148.851798720401
 30
0.0
 11
207.6648375736785
 21
107.6445233304011
 31
0.0
1001
PHOENIX7010
1002
{
1070
    62
1070
     1
1070
    41
1040
1.0
1002
}
  0
LINE
  5
6E8
102
{ACAD_REACTORS
330
B95
102
}
330
1A
100
AcDbEntity
  8
HAUPTEBENE
  6
Continuous
 62
     1
100
AcDbLine
 10
202.2399108136785
 20
148.8515545804011
 30
0.0
 11
207.6648375736785
 21
107.6445233304011
 31
0.0
1001
PHOENIX7010
1002
{
1070
    62
1070
     1
1070
    41
1040
1.0
1002
}
  0
LINE
  5
6EB
102
{ACAD_REACTORS
330
B98
102
}
330
1A
100
AcDbEntity
  8
BEMASSUNG2
  6
Continuous
 62
     1
100
AcDbLine
 10
364.5897643336785
 20
122.731773090401
 30
0.0
 11
364.5897643336785
 21
102.731773090401
 31
0.0
1001
PHOENIX7010
1002
{
1070
    62
1070
     1
1070
    41
1040
1.0
1002
}
  0
TEXT
  5
6EC
102
{ACAD_REACTORS
330
B98
102
}
330
1A
100
AcDbEntity
  8
HAUPTEBENE
  6
Continuous
 62
     5
100
AcDbText
 10
357.0897643336785
 20
102.791801160401
 30
0.0
 40
5.0
  1

 50
90.0
 41
1.5
100
AcDbText
1001
PHOENIX7010
1002
{
1070
    62
1070
     5
1070
    41
1040
1.0
1002
}
  0
TEXT
  5
6ED
102
{ACAD_REACTORS
330
B98
102
}
330
1A
100
AcDbEntity
  8
HAUPTEBENE
  6
Continuous
 62
     5
100
AcDbText
 10
362.0897643336785
 20
102.791801160401
 30
0.0
 40
5.0
  1
16,1
 50
90.0
 41
1.5
100
AcDbText
1001
PHOENIX7010
1002
{
1070
    62
1070
     5
1070
    41
1040
1.0
1002
}
  0
LINE
  5
6F0
102
{ACAD_REACTORS
330
B96
102
}
330
1A
100
AcDbEntity
  8
BEMASSUNG2
  6
Continuous
 62
     1
100
AcDbLine
 10
364.5897643336785
 20
138.851798720401
 30
0.0
 11
364.1981857636785
 21
135.877464140401
 31
0.0
1001
PHOENIX7010
1002
{
1070
    62
1070
     1
1070
    41
1040
1.0
1002
}
  0
LINE
  5
6F1
102
{ACAD_REACTORS
330
B96
102
}
330
1A
100
AcDbEntity
  8
BEMASSUNG2
  6
Continuous
 62
     1
100
AcDbLine
 10
364.5897643336785
 20
138.851798720401
 30
0.0
 11
364.9813428936785
 21
135.877464140401
 31
0.0
1001
PHOENIX7010
1002
{
1070
    62
1070
     1
1070
    41
1040
1.0
1002
}
  0
LINE
  5
6F4
102
{ACAD_REACTORS
330
B97
102
}
330
1A
100
AcDbEntity
  8
BEMASSUNG2
  6
Continuous
 62
     1
100
AcDbLine
 10
364.5897643336785
 20
122.731773090401
 30
0.0
 11
364.9813428936785
 21
125.706107670401
 31
0.0
1001
PHOENIX7010
1002
{
1070
    62
1070
     1
1070
    41
1040
1.0
1002
}
  0
LINE
  5
6F5
102
{ACAD_REACTORS
330
B97
102
}
330
1A
100
AcDbEntity
  8
BEMASSUNG2
  6
Continuous
 62
     1
100
AcDbLine
 10
364.5897643336785
 20
122.731773090401
 30
0.0
 11
364.1981857636785
 21
125.706107670401
 31
0.0
1001
PHOENIX7010
1002
{
1070
    62
1070
     1
1070
    41
1040
1.0
1002
}
  0
LINE
  5
6F6
102
{ACAD_REACTORS
330
B98
102
}
330
1A
100
AcDbEntity
  8
BEMASSUNG2
  6
Continuous
 62
     1
100
AcDbLine
 10
364.5897643336785
 20
122.731773090401
 30
0.0
 11
364.5897643336785
 21
138.851798720401
 31
0.0
1001
PHOENIX7010
1002
{
1070
    62
1070
     1
1070
    41
1040
1.0
1002
}
  0
LINE
  5
6F7
102
{ACAD_REACTORS
330
B98
102
}
330
1A
100
AcDbEntity
  8
BEMASSUNG2
  6
Continuous
 62
     1
100
AcDbLine
 10
339.8397643336786
 20
138.851798720401
 30
0.0
 11
366.5897643336785
 21
138.851798720401
 31
0.0
1001
PHOENIX7010
1002
{
1070
    62
1070
     1
1070
    41
1040
1.0
1002
}
  0
TEXT
  5
6FA
102
{ACAD_REACTORS
330
B99
102
}
330
1A
100
AcDbEntity
  8
BEMASSUNG
  6
Continuous
 62
     5
100
AcDbText
 10
372.0897643336785
 20
125.791770640401
 30
0.0
 40
5.0
  1
26.1
 50
90.0
 41
1.5
100
AcDbText
1001
PHOENIX7010
1002
{
1070
    62
1070
     5
1070
    41
1040
1.0
1002
}
  0
LINE
  5
6FB
102
{ACAD_REACTORS
330
B99
102
}
330
1A
100
AcDbEntity
  8
BEMASSUNG
  6
Continuous
 62
     1
100
AcDbLine
 10
374.5897643336785
 20
148.851768200401
 30
0.0
 11
374.1711349897458
 21
145.8811202117631
 31
0.0
1001
PHOENIX7010
1002
{
1070
    62
1070
     1
1070
    41
1040
1.0
1002
}
  0
LINE
  5
6FC
102
{ACAD_REACTORS
330
B99
102
}
330
1A
100
AcDbEntity
  8
BEMASSUNG
  6
Continuous
 62
     1
100
AcDbLine
 10
374.5897643336785
 20
148.851768200401
 30
0.0
 11
375.0083936776112
 21
145.8811202117631
 31
0.0
1001
PHOENIX7010
1002
{
1070
    62
1070
     1
1070
    41
1040
1.0
1002
}
  0
LINE
  5
6FD
102
{ACAD_REACTORS
330
B99
102
}
330
1A
100
AcDbEntity
  8
BEMASSUNG
  6
Continuous
 62
     1
100
AcDbLine
 10
374.5897643336785
 20
122.731773090401
 30
0.0
 11
375.0083936776112
 21
125.7024210790389
 31
0.0
1001
PHOENIX7010
1002
{
1070
    62
1070
     1
1070
    41
1040
1.0
1002
}
  0
LINE
  5
6FE
102
{ACAD_REACTORS
330
B99
102
}
330
1A
100
AcDbEntity
  8
BEMASSUNG
  6
Continuous
 62
     1
100
AcDbLine
 10
374.5897643336785
 20
122.731773090401
 30
0.0
 11
374.1711349897458
 21
125.7024210790389
 31
0.0
1001
PHOENIX7010
1002
{
1070
    62
1070
     1
1070
    41
1040
1.0
1002
}
  0
LINE
  5
6FF
102
{ACAD_REACTORS
330
B99
102
}
330
1A
100
AcDbEntity
  8
BEMASSUNG
  6
Continuous
 62
     1
100
AcDbLine
 10
374.5897643336785
 20
122.731773090401
 30
0.0
 11
374.5897643336785
 21
148.851768200401
 31
0.0
1001
PHOENIX7010
1002
{
1070
    62
1070
     1
1070
    41
1040
1.0
1002
}
  0
LINE
  5
700
102
{ACAD_REACTORS
330
B99
102
}
330
1A
100
AcDbEntity
  8
BEMASSUNG
  6
Continuous
 62
     1
100
AcDbLine
 10
339.8397643336786
 20
148.851768200401
 30
0.0
 11
376.5897643336785
 21
148.851768200401
 31
0.0
1001
PHOENIX7010
1002
{
1070
    62
1070
     1
1070
    41
1040
1.0
1002
}
  0
LINE
  5
701
102
{ACAD_REACTORS
330
B99
102
}
330
1A
100
AcDbEntity
  8
BEMASSUNG
  6
Continuous
 62
     1
100
AcDbLine
 10
340.5897643336786
 20
122.731773090401
 30
0.0
 11
376.5897643336785
 21
122.731773090401
 31
0.0
1001
PHOENIX7010
1002
{
1070
    62
1070
     1
1070
    41
1040
1.0
1002
}
  0
TEXT
  5
704
102
{ACAD_REACTORS
330
B9A
102
}
330
1A
100
AcDbEntity
  8
BEMASSUNG
  6
Continuous
 62
     5
100
AcDbText
 10
215.437543979706
 20
171.2318035717392
 30
0.0
 40
5.0
  1
10.85
 50
359.9999973188484
 41
1.5
100
AcDbText
1001
PHOENIX7010
1002
{
1070
    62
1070
     5
1070
    41
1040
1.0
1002
}
  0
LINE
  5
705
102
{ACAD_REACTORS
330
B9A
102
}
330
1A
100
AcDbEntity
  8
BEMASSUNG
  6
Continuous
 62
     1
100
AcDbLine
 10
213.0897643336786
 20
168.731803600401
 30
0.0
 11
210.1191163450406
 21
169.1504329443338
 31
0.0
1001
PHOENIX7010
1002
{
1070
    62
1070
     1
1070
    41
1040
1.0
1002
}
  0
LINE
  5
706
102
{ACAD_REACTORS
330
B9A
102
}
330
1A
100
AcDbEntity
  8
BEMASSUNG
  6
Continuous
 62
     1
100
AcDbLine
 10
213.0897643336786
 20
168.731803600401
 30
0.0
 11
210.1191163450406
 21
168.3131742564684
 31
0.0
1001
PHOENIX7010
1002
{
1070
    62
1070
     1
1070
    41
1040
1.0
1002
}
  0
LINE
  5
707
102
{ACAD_REACTORS
330
B9A
102
}
330
1A
100
AcDbEntity
  8
BEMASSUNG
  6
Continuous
 62
     1
100
AcDbLine
 10
202.2399108136785
 20
168.7318036004011
 30
0.0
 11
205.2105588023164
 21
168.3131742564684
 31
0.0
1001
PHOENIX7010
1002
{
1070
    62
1070
     1
1070
    41
1040
1.0
1002
}
  0
LINE
  5
708
102
{ACAD_REACTORS
330
B9A
102
}
330
1A
100
AcDbEntity
  8
BEMASSUNG
  6
Continuous
 62
     1
100
AcDbLine
 10
202.2399108136785
 20
168.7318036004011
 30
0.0
 11
205.2105588023164
 21
169.1504329443338
 31
0.0
1001
PHOENIX7010
1002
{
1070
    62
1070
     1
1070
    41
1040
1.0
1002
}
  0
LINE
  5
709
102
{ACAD_REACTORS
330
B9A
102
}
330
1A
100
AcDbEntity
  8
BEMASSUNG
  6
Continuous
 62
     1
100
AcDbLine
 10
202.2399108136785
 20
168.7318036004011
 30
0.0
 11
213.0897643336786
 21
168.731803600401
 31
0.0
1001
PHOENIX7010
1002
{
1070
    62
1070
     1
1070
    41
1040
1.0
1002
}
  0
TEXT
  5
70C
102
{ACAD_REACTORS
330
B9B
102
}
330
1A
100
AcDbEntity
  8
BEMASSUNG
  6
Continuous
 62
     5
100
AcDbText
 10
286.9016836992241
 20
171.2318035717392
 30
0.0
 40
5.0
  1
122.5
 50
359.9999973188484
 41
1.5
100
AcDbText
1001
PHOENIX7010
1002
{
1070
    62
1070
     5
1070
    41
1040
1.0
1002
}
  0
LINE
  5
70D
102
{ACAD_REACTORS
330
B9B
102
}
330
1A
100
AcDbEntity
  8
BEMASSUNG
  6
Continuous
 62
     1
100
AcDbLine
 10
213.0897643336786
 20
168.731803600401
 30
0.0
 11
216.0604123223164
 21
168.3131742564683
 31
0.0
1001
PHOENIX7010
1002
{
1070
    62
1070
     1
1070
    41
1040
1.0
1002
}
  0
LINE
  5
70E
102
{ACAD_REACTORS
330
B9B
102
}
330
1A
100
AcDbEntity
  8
BEMASSUNG
  6
Continuous
 62
     1
100
AcDbLine
 10
213.0897643336786
 20
168.731803600401
 30
0.0
 11
216.0604123223164
 21
169.1504329443338
 31
0.0
1001
PHOENIX7010
1002
{
1070
    62
1070
     1
1070
    41
1040
1.0
1002
}
  0
LINE
  5
70F
102
{ACAD_REACTORS
330
B9B
102
}
330
1A
100
AcDbEntity
  8
BEMASSUNG
  6
Continuous
 62
     1
100
AcDbLine
 10
335.5897643336785
 20
168.731803600401
 30
0.0
 11
332.6191163450406
 21
169.1504329443338
 31
0.0
1001
PHOENIX7010
1002
{
1070
    62
1070
     1
1070
    41
1040
1.0
1002
}
  0
LINE
  5
710
102
{ACAD_REACTORS
330
B9B
102
}
330
1A
100
AcDbEntity
  8
BEMASSUNG
  6
Continuous
 62
     1
100
AcDbLine
 10
335.5897643336785
 20
168.731803600401
 30
0.0
 11
332.6191163450406
 21
168.3131742564683
 31
0.0
1001
PHOENIX7010
1002
{
1070
    62
1070
     1
1070
    41
1040
1.0
1002
}
  0
LINE
  5
711
102
{ACAD_REACTORS
330
B9B
102
}
330
1A
100
AcDbEntity
  8
BEMASSUNG
  6
Continuous
 62
     1
100
AcDbLine
 10
335.5897643336785
 20
168.731803600401
 30
0.0
 11
213.0897643336786
 21
168.731803600401
 31
0.0
1001
PHOENIX7010
1002
{
1070
    62
1070
     1
1070
    41
1040
1.0
1002
}
  0
LINE
  5
712
102
{ACAD_REACTORS
330
B9B
102
}
330
1A
100
AcDbEntity
  8
BEMASSUNG
  6
Continuous
 62
     1
100
AcDbLine
 10
213.0897643336786
 20
153.1015545804011
 30
0.0
 11
213.0897643336786
 21
170.7318036004011
 31
0.0
1001
PHOENIX7010
1002
{
1070
    62
1070
     1
1070
    41
1040
1.0
1002
}
  0
LINE
  5
713
102
{ACAD_REACTORS
330
B9B
102
}
330
1A
100
AcDbEntity
  8
BEMASSUNG
  6
Continuous
 62
     1
100
AcDbLine
 10
335.5897643336785
 20
153.101768200401
 30
0.0
 11
335.5897643336785
 21
170.7318036004011
 31
0.0
1001
PHOENIX7010
1002
{
1070
    62
1070
     1
1070
    41
1040
1.0
1002
}
  0
TEXT
  5
716
102
{ACAD_REACTORS
330
B9C
102
}
330
1A
100
AcDbEntity
  8
BEMASSUNG
  6
Continuous
 62
     5
100
AcDbText
 10
131.0769518238779
 20
171.2318035717393
 30
0.0
 40
5.0
  1
122.5
 50
359.9999973188484
 41
1.5
100
AcDbText
1001
PHOENIX7010
1002
{
1070
    62
1070
     5
1070
    41
1040
1.0
1002
}
  0
LINE
  5
717
102
{ACAD_REACTORS
330
B9C
102
}
330
1A
100
AcDbEntity
  8
BEMASSUNG
  6
Continuous
 62
     1
100
AcDbLine
 10
202.2399108136785
 20
168.7318036004011
 30
0.0
 11
199.2692628250406
 21
169.1504329443338
 31
0.0
1001
PHOENIX7010
1002
{
1070
    62
1070
     1
1070
    41
1040
1.0
1002
}
  0
LINE
  5
718
102
{ACAD_REACTORS
330
B9C
102
}
330
1A
100
AcDbEntity
  8
BEMASSUNG
  6
Continuous
 62
     1
100
AcDbLine
 10
202.2399108136785
 20
168.7318036004011
 30
0.0
 11
199.2692628250406
 21
168.3131742564684
 31
0.0
1001
PHOENIX7010
1002
{
1070
    62
1070
     1
1070
    41
1040
1.0
1002
}
  0
LINE
  5
719
102
{ACAD_REACTORS
330
B9C
102
}
330
1A
100
AcDbEntity
  8
BEMASSUNG
  6
Continuous
 62
     1
100
AcDbLine
 10
79.73991081367848
 20
168.7318036004011
 30
0.0
 11
82.71055880231637
 21
168.3131742564684
 31
0.0
1001
PHOENIX7010
1002
{
1070
    62
1070
     1
1070
    41
1040
1.0
1002
}
  0
LINE
  5
71A
102
{ACAD_REACTORS
330
B9C
102
}
330
1A
100
AcDbEntity
  8
BEMASSUNG
  6
Continuous
 62
     1
100
AcDbLine
 10
79.73991081367848
 20
168.7318036004011
 30
0.0
 11
82.71055880231637
 21
169.1504329443338
 31
0.0
1001
PHOENIX7010
1002
{
1070
    62
1070
     1
1070
    41
1040
1.0
1002
}
  0
LINE
  5
71B
102
{ACAD_REACTORS
330
B9C
102
}
330
1A
100
AcDbEntity
  8
BEMASSUNG
  6
Continuous
 62
     1
100
AcDbLine
 10
79.73991081367848
 20
168.7318036004011
 30
0.0
 11
202.2399108136785
 21
168.7318036004011
 31
0.0
1001
PHOENIX7010
1002
{
1070
    62
1070
     1
1070
    41
1040
1.0
1002
}
  0
LINE
  5
71C
102
{ACAD_REACTORS
330
B9C
102
}
330
1A
100
AcDbEntity
  8
BEMASSUNG
  6
Continuous
 62
     1
100
AcDbLine
 10
202.2399108136785
 20
153.1015545804011
 30
0.0
 11
202.2399108136785
 21
170.7318036004011
 31
0.0
1001
PHOENIX7010
1002
{
1070
    62
1070
     1
1070
    41
1040
1.0
1002
}
  0
LINE
  5
71D
102
{ACAD_REACTORS
330
B9C
102
}
330
1A
100
AcDbEntity
  8
BEMASSUNG
  6
Continuous
 62
     1
100
AcDbLine
 10
79.73991081367848
 20
153.1015545804011
 30
0.0
 11
79.73991081367848
 21
170.7318036004011
 31
0.0
1001
PHOENIX7010
1002
{
1070
    62
1070
     1
1070
    41
1040
1.0
1002
}
  0
TEXT
  5
720
102
{ACAD_REACTORS
330
B9D
102
}
330
1A
100
AcDbEntity
  8
BEMASSUNG
  6
Continuous
 62
     5
100
AcDbText
 10
52.23991081367848
 20
154.8515545804011
 30
0.0
 40
5.0
  1
%%c4.5
 50
90.0
 41
1.5
100
AcDbText
1001
PHOENIX7010
1002
{
1070
    62
1070
     5
1070
    41
1040
1.0
1002
}
  0
LINE
  5
721
102
{ACAD_REACTORS
330
B9D
102
}
330
1A
100
AcDbEntity
  8
BEMASSUNG
  6
Continuous
 62
     1
100
AcDbLine
 10
54.73991081367848
 20
151.1015545804011
 30
0.0
 11
54.73991081367848
 21
146.6015545804011
 31
0.0
1001
PHOENIX7010
1002
{
1070
    62
1070
     1
1070
    41
1040
1.0
1002
}
  0
LINE
  5
722
102
{ACAD_REACTORS
330
B9D
102
}
330
1A
100
AcDbEntity
  8
BEMASSUNG
  6
Continuous
 62
     1
100
AcDbLine
 10
54.73991081367848
 20
151.1015545804011
 30
0.0
 11
55.15854015761118
 21
154.072202569039
 31
0.0
1001
PHOENIX7010
1002
{
1070
    62
1070
     1
1070
    41
1040
1.0
1002
}
  0
LINE
  5
723
102
{ACAD_REACTORS
330
B9D
102
}
330
1A
100
AcDbEntity
  8
BEMASSUNG
  6
Continuous
 62
     1
100
AcDbLine
 10
54.73991081367848
 20
151.1015545804011
 30
0.0
 11
54.32128146974577
 21
154.072202569039
 31
0.0
1001
PHOENIX7010
1002
{
1070
    62
1070
     1
1070
    41
1040
1.0
1002
}
  0
LINE
  5
724
102
{ACAD_REACTORS
330
B9D
102
}
330
1A
100
AcDbEntity
  8
BEMASSUNG
  6
Continuous
 62
     1
100
AcDbLine
 10
54.73991081367848
 20
161.1015545804011
 30
0.0
 11
54.73991081367848
 21
151.1015545804011
 31
0.0
1001
PHOENIX7010
1002
{
1070
    62
1070
     1
1070
    41
1040
1.0
1002
}
  0
LINE
  5
725
102
{ACAD_REACTORS
330
B9D
102
}
330
1A
100
AcDbEntity
  8
BEMASSUNG
  6
Continuous
 62
     1
100
AcDbLine
 10
54.73991081367848
 20
146.6015545804011
 30
0.0
 11
54.32128146974577
 21
143.6309065917632
 31
0.0
1001
PHOENIX7010
1002
{
1070
    62
1070
     1
1070
    41
1040
1.0
1002
}
  0
LINE
  5
726
102
{ACAD_REACTORS
330
B9D
102
}
330
1A
100
AcDbEntity
  8
BEMASSUNG
  6
Continuous
 62
     1
100
AcDbLine
 10
54.73991081367848
 20
146.6015545804011
 30
0.0
 11
55.15854015761118
 21
143.6309065917632
 31
0.0
1001
PHOENIX7010
1002
{
1070
    62
1070
     1
1070
    41
1040
1.0
1002
}
  0
LINE
  5
727
102
{ACAD_REACTORS
330
B9D
102
}
330
1A
100
AcDbEntity
  8
BEMASSUNG
  6
Continuous
 62
     1
100
AcDbLine
 10
54.73991081367848
 20
136.6015545804011
 30
0.0
 11
54.73991081367848
 21
146.6015545804011
 31
0.0
1001
PHOENIX7010
1002
{
1070
    62
1070
     1
1070
    41
1040
1.0
1002
}
  0
LINE
  5
728
102
{ACAD_REACTORS
330
B9D
102
}
330
1A
100
AcDbEntity
  8
BEMASSUNG
  6
Continuous
 62
     1
100
AcDbLine
 10
79.73991081367848
 20
146.6015545804011
 30
0.0
 11
52.73991081367848
 21
146.6015545804011
 31
0.0
1001
PHOENIX7010
1002
{
1070
    62
1070
     1
1070
    41
1040
1.0
1002
}
  0
LINE
  5
729
102
{ACAD_REACTORS
330
B9D
102
}
330
1A
100
AcDbEntity
  8
BEMASSUNG
  6
Continuous
 62
     1
100
AcDbLine
 10
79.73991081367848
 20
151.1015545804011
 30
0.0
 11
52.73991081367848
 21
151.1015545804011
 31
0.0
1001
PHOENIX7010
1002
{
1070
    62
1070
     1
1070
    41
1040
1.0
1002
}
  0
TEXT
  5
72C
102
{ACAD_REACTORS
330
B9E
102
}
330
1A
100
AcDbEntity
  8
BEMASSUNG
  6
Continuous
 62
     5
100
AcDbText
 10
62.23991081367848
 20
114.8515545804011
 30
0.0
 40
5.0
  1
%%c3.8
 50
90.0
 41
1.5
100
AcDbText
1001
PHOENIX7010
1002
{
1070
    62
1070
     5
1070
    41
1040
1.0
1002
}
  0
LINE
  5
72D
102
{ACAD_REACTORS
330
B9E
102
}
330
1A
100
AcDbEntity
  8
BEMASSUNG
  6
Continuous
 62
     1
100
AcDbLine
 10
64.73991081367848
 20
140.7515484804011
 30
0.0
 11
64.73991081367848
 21
136.9515606804011
 31
0.0
1001
PHOENIX7010
1002
{
1070
    62
1070
     1
1070
    41
1040
1.0
1002
}
  0
LINE
  5
72E
102
{ACAD_REACTORS
330
B9E
102
}
330
1A
100
AcDbEntity
  8
BEMASSUNG
  6
Continuous
 62
     1
100
AcDbLine
 10
64.73991081367848
 20
140.7515484804011
 30
0.0
 11
65.15854015761118
 21
143.722196469039
 31
0.0
1001
PHOENIX7010
1002
{
1070
    62
1070
     1
1070
    41
1040
1.0
1002
}
  0
LINE
  5
72F
102
{ACAD_REACTORS
330
B9E
102
}
330
1A
100
AcDbEntity
  8
BEMASSUNG
  6
Continuous
 62
     1
100
AcDbLine
 10
64.73991081367848
 20
140.7515484804011
 30
0.0
 11
64.32128146974577
 21
143.722196469039
 31
0.0
1001
PHOENIX7010
1002
{
1070
    62
1070
     1
1070
    41
1040
1.0
1002
}
  0
LINE
  5
730
102
{ACAD_REACTORS
330
B9E
102
}
330
1A
100
AcDbEntity
  8
BEMASSUNG
  6
Continuous
 62
     1
100
AcDbLine
 10
64.73991081367848
 20
150.7515484804011
 30
0.0
 11
64.73991081367848
 21
140.7515484804011
 31
0.0
1001
PHOENIX7010
1002
{
1070
    62
1070
     1
1070
    41
1040
1.0
1002
}
  0
LINE
  5
731
102
{ACAD_REACTORS
330
B9E
102
}
330
1A
100
AcDbEntity
  8
BEMASSUNG
  6
Continuous
 62
     1
100
AcDbLine
 10
64.73991081367848
 20
136.9515606804011
 30
0.0
 11
64.32128146974577
 21
133.9809126917632
 31
0.0
1001
PHOENIX7010
1002
{
1070
    62
1070
     1
1070
    41
1040
1.0
1002
}
  0
LINE
  5
732
102
{ACAD_REACTORS
330
B9E
102
}
330
1A
100
AcDbEntity
  8
BEMASSUNG
  6
Continuous
 62
     1
100
AcDbLine
 10
64.73991081367848
 20
136.9515606804011
 30
0.0
 11
65.15854015761118
 21
133.9809126917632
 31
0.0
1001
PHOENIX7010
1002
{
1070
    62
1070
     1
1070
    41
1040
1.0
1002
}
  0
LINE
  5
733
102
{ACAD_REACTORS
330
B9E
102
}
330
1A
100
AcDbEntity
  8
BEMASSUNG
  6
Continuous
 62
     1
100
AcDbLine
 10
64.73991081367848
 20
126.9515606804011
 30
0.0
 11
64.73991081367848
 21
136.9515606804011
 31
0.0
1001
PHOENIX7010
1002
{
1070
    62
1070
     1
1070
    41
1040
1.0
1002
}
  0
LINE
  5
734
102
{ACAD_REACTORS
330
B9E
102
}
330
1A
100
AcDbEntity
  8
BEMASSUNG
  6
Continuous
 62
     1
100
AcDbLine
 10
79.73991081367848
 20
136.9515606804011
 30
0.0
 11
62.73991081367848
 21
136.9515606804011
 31
0.0
1001
PHOENIX7010
1002
{
1070
    62
1070
     1
1070
    41
1040
1.0
1002
}
  0
LINE
  5
735
102
{ACAD_REACTORS
330
B9E
102
}
330
1A
100
AcDbEntity
  8
BEMASSUNG
  6
Continuous
 62
     1
100
AcDbLine
 10
79.73991081367848
 20
140.7515484804011
 30
0.0
 11
62.73991081367848
 21
140.7515484804011
 31
0.0
1001
PHOENIX7010
1002
{
1070
    62
1070
     1
1070
    41
1040
1.0
1002
}
  0
TEXT
  5
738
102
{ACAD_REACTORS
330
BA0
102
}
330
1A
100
AcDbEntity
  8
HAUPTEBENE
  6
Continuous
 62
     5
100
AcDbText
 10
55.23991081367853
 20
227.0814740104011
 30
0.0
 40
5.0
  1

 50
90.0
 41
1.5
100
AcDbText
1001
PHOENIX7010
1002
{
1070
    62
1070
     5
1070
    41
1040
1.0
1002
}
  0
TEXT
  5
739
102
{ACAD_REACTORS
330
BA0
102
}
330
1A
100
AcDbEntity
  8
HAUPTEBENE
  6
Continuous
 62
     5
100
AcDbText
 10
60.23991081367853
 20
227.0814740104011
 30
0.0
 40
5.0
  1
3,5
 50
90.0
 41
1.5
100
AcDbText
1001
PHOENIX7010
1002
{
1070
    62
1070
     5
1070
    41
1040
1.0
1002
}
  0
LINE
  5
73A
102
{ACAD_REACTORS
330
BA0
102
}
330
1A
100
AcDbEntity
  8
BEMASSUNG2
  6
Continuous
 62
     1
100
AcDbLine
 10
62.73991081367853
 20
220.3314740104012
 30
0.0
 11
62.73991081367853
 21
223.8314740104011
 31
0.0
1001
PHOENIX7010
1002
{
1070
    62
1070
     1
1070
    41
1040
1.0
1002
}
  0
LINE
  5
73D
102
{ACAD_REACTORS
330
B9F
102
}
330
1A
100
AcDbEntity
  8
BEMASSUNG2
  6
Continuous
 62
     1
100
AcDbLine
 10
62.73991081367853
 20
223.8314740104011
 30
0.0
 11
63.13148938367851
 21
226.8058086004011
 31
0.0
1001
PHOENIX7010
1002
{
1070
    62
1070
     1
1070
    41
1040
1.0
1002
}
  0
LINE
  5
73E
102
{ACAD_REACTORS
330
B9F
102
}
330
1A
100
AcDbEntity
  8
BEMASSUNG2
  6
Continuous
 62
     1
100
AcDbLine
 10
62.73991081367853
 20
223.8314740104011
 30
0.0
 11
62.34833225367856
 21
226.8058086004011
 31
0.0
1001
PHOENIX7010
1002
{
1070
    62
1070
     1
1070
    41
1040
1.0
1002
}
  0
LINE
  5
73F
102
{ACAD_REACTORS
330
BA0
102
}
330
1A
100
AcDbEntity
  8
BEMASSUNG2
  6
Continuous
 62
     1
100
AcDbLine
 10
62.73991081367853
 20
233.8314740104011
 30
0.0
 11
62.73991081367853
 21
223.8314740104011
 31
0.0
1001
PHOENIX7010
1002
{
1070
    62
1070
     1
1070
    41
1040
1.0
1002
}
  0
LINE
  5
740
102
{ACAD_REACTORS
330
BA0
102
}
330
1A
100
AcDbEntity
  8
BEMASSUNG2
  6
Continuous
 62
     1
100
AcDbLine
 10
107.0148131636785
 20
223.8314740104011
 30
0.0
 11
60.73991081367854
 21
223.8314740104011
 31
0.0
1001
PHOENIX7010
1002
{
1070
    62
1070
     1
1070
    41
1040
1.0
1002
}
  0
LINE
  5
741
102
{ACAD_REACTORS
330
BA0
102
}
330
1A
100
AcDbEntity
  8
BEMASSUNG2
  6
Continuous
 62
     1
100
AcDbLine
 10
107.0148131636785
 20
220.3314740104012
 30
0.0
 11
60.73991081367854
 21
220.3314740104012
 31
0.0
1001
PHOENIX7010
1002
{
1070
    62
1070
     1
1070
    41
1040
1.0
1002
}
  0
TEXT
  5
744
102
{ACAD_REACTORS
330
BA2
102
}
330
1A
100
AcDbEntity
  8
HAUPTEBENE
  6
Continuous
 62
     5
100
AcDbText
 10
55.23991081367848
 20
195.5315167404011
 30
0.0
 40
5.0
  1

 50
90.0
 41
1.5
100
AcDbText
1001
PHOENIX7010
1002
{
1070
    62
1070
     5
1070
    41
1040
1.0
1002
}
  0
TEXT
  5
745
102
{ACAD_REACTORS
330
BA2
102
}
330
1A
100
AcDbEntity
  8
HAUPTEBENE
  6
Continuous
 62
     5
100
AcDbText
 10
60.23991081367848
 20
195.5315167404011
 30
0.0
 40
5.0
  1
6,6
 50
90.0
 41
1.5
100
AcDbText
1001
PHOENIX7010
1002
{
1070
    62
1070
     5
1070
    41
1040
1.0
1002
}
  0
LINE
  5
746
102
{ACAD_REACTORS
330
BA2
102
}
330
1A
100
AcDbEntity
  8
BEMASSUNG2
  6
Continuous
 62
     1
100
AcDbLine
 10
62.73991081367853
 20
213.7315289504011
 30
0.0
 11
62.73991081367853
 21
220.3314740104012
 31
0.0
1001
PHOENIX7010
1002
{
1070
    62
1070
     1
1070
    41
1040
1.0
1002
}
  0
LINE
  5
749
102
{ACAD_REACTORS
330
BA1
102
}
330
1A
100
AcDbEntity
  8
BEMASSUNG2
  6
Continuous
 62
     1
100
AcDbLine
 10
62.73991081367853
 20
213.7315289504011
 30
0.0
 11
62.34833225367856
 21
210.7571943604011
 31
0.0
1001
PHOENIX7010
1002
{
1070
    62
1070
     1
1070
    41
1040
1.0
1002
}
  0
LINE
  5
74A
102
{ACAD_REACTORS
330
BA1
102
}
330
1A
100
AcDbEntity
  8
BEMASSUNG2
  6
Continuous
 62
     1
100
AcDbLine
 10
62.73991081367853
 20
213.7315289504011
 30
0.0
 11
63.13148938367851
 21
210.7571943604011
 31
0.0
1001
PHOENIX7010
1002
{
1070
    62
1070
     1
1070
    41
1040
1.0
1002
}
  0
LINE
  5
74B
102
{ACAD_REACTORS
330
BA2
102
}
330
1A
100
AcDbEntity
  8
BEMASSUNG2
  6
Continuous
 62
     1
100
AcDbLine
 10
62.73991081367848
 20
203.7315289504011
 30
0.0
 11
62.73991081367853
 21
213.7315289504011
 31
0.0
1001
PHOENIX7010
1002
{
1070
    62
1070
     1
1070
    41
1040
1.0
1002
}
  0
LINE
  5
74C
102
{ACAD_REACTORS
330
BA2
102
}
330
1A
100
AcDbEntity
  8
BEMASSUNG2
  6
Continuous
 62
     1
100
AcDbLine
 10
74.73991081367853
 20
213.7315289504011
 30
0.0
 11
60.73991081367854
 21
213.7315289504011
 31
0.0
1001
PHOENIX7010
1002
{
1070
    62
1070
     1
1070
    41
1040
1.0
1002
}
  0
TEXT
  5
74F
102
{ACAD_REACTORS
330
BA3
102
}
330
1A
100
AcDbEntity
  8
BEMASSUNG
  6
Continuous
 62
     5
100
AcDbText
 10
348.5436165419887
 20
215.4114911004011
 30
0.0
 40
5.0
  1
23.4
 50
90.0
 41
1.5
100
AcDbText
1001
PHOENIX7010
1002
{
1070
    62
1070
     5
1070
    41
1040
1.0
1002
}
  0
LINE
  5
750
102
{ACAD_REACTORS
330
BA3
102
}
330
1A
100
AcDbEntity
  8
BEMASSUNG
  6
Continuous
 62
     1
100
AcDbLine
 10
351.0436165419887
 20
237.1114727904011
 30
0.0
 11
350.6249871980561
 21
234.1408248017632
 31
0.0
1001
PHOENIX7010
1002
{
1070
    62
1070
     1
1070
    41
1040
1.0
1002
}
  0
LINE
  5
751
102
{ACAD_REACTORS
330
BA3
102
}
330
1A
100
AcDbEntity
  8
BEMASSUNG
  6
Continuous
 62
     1
100
AcDbLine
 10
351.0436165419887
 20
237.1114727904011
 30
0.0
 11
351.4622458859215
 21
234.1408248017632
 31
0.0
1001
PHOENIX7010
1002
{
1070
    62
1070
     1
1070
    41
1040
1.0
1002
}
  0
LINE
  5
752
102
{ACAD_REACTORS
330
BA3
102
}
330
1A
100
AcDbEntity
  8
BEMASSUNG
  6
Continuous
 62
     1
100
AcDbLine
 10
351.0436165419887
 20
213.7115094104011
 30
0.0
 11
351.4622458859215
 21
216.682157399039
 31
0.0
1001
PHOENIX7010
1002
{
1070
    62
1070
     1
1070
    41
1040
1.0
1002
}
  0
LINE
  5
753
102
{ACAD_REACTORS
330
BA3
102
}
330
1A
100
AcDbEntity
  8
BEMASSUNG
  6
Continuous
 62
     1
100
AcDbLine
 10
351.0436165419887
 20
213.7115094104011
 30
0.0
 11
350.6249871980561
 21
216.682157399039
 31
0.0
1001
PHOENIX7010
1002
{
1070
    62
1070
     1
1070
    41
1040
1.0
1002
}
  0
LINE
  5
754
102
{ACAD_REACTORS
330
BA3
102
}
330
1A
100
AcDbEntity
  8
BEMASSUNG
  6
Continuous
 62
     1
100
AcDbLine
 10
351.0436165419887
 20
213.7115094104011
 30
0.0
 11
351.0436165419887
 21
237.1114727904011
 31
0.0
1001
PHOENIX7010
1002
{
1070
    62
1070
     1
1070
    41
1040
1.0
1002
}
  0
LINE
  5
755
102
{ACAD_REACTORS
330
BA3
102
}
330
1A
100
AcDbEntity
  8
BEMASSUNG
  6
Continuous
 62
     1
100
AcDbLine
 10
369.3495312924595
 20
237.1114727904011
 30
0.0
 11
349.0436165419887
 21
237.1114727904011
 31
0.0
1001
PHOENIX7010
1002
{
1070
    62
1070
     1
1070
    41
1040
1.0
1002
}
  0
LINE
  5
756
102
{ACAD_REACTORS
330
BA3
102
}
330
1A
100
AcDbEntity
  8
BEMASSUNG
  6
Continuous
 62
     1
100
AcDbLine
 10
403.3495312924594
 20
213.711509410401
 30
0.0
 11
349.0436165419887
 21
213.7115094104011
 31
0.0
1001
PHOENIX7010
1002
{
1070
    62
1070
     1
1070
    41
1040
1.0
1002
}
  0
TEXT
  5
759
102
{ACAD_REACTORS
330
BA4
102
}
330
1A
100
AcDbEntity
  8
BEMASSUNG
  6
Continuous
 62
     5
100
AcDbText
 10
415.8495312924594
 20
217.611503310401
 30
0.0
 40
5.0
  1
27.8
 50
90.0
 41
1.5
100
AcDbText
1001
PHOENIX7010
1002
{
1070
    62
1070
     5
1070
    41
1040
1.0
1002
}
  0
LINE
  5
75A
102
{ACAD_REACTORS
330
BA4
102
}
330
1A
100
AcDbEntity
  8
BEMASSUNG
  6
Continuous
 62
     1
100
AcDbLine
 10
418.3495331924594
 20
241.5114666904011
 30
0.0
 11
417.9309038485267
 21
238.5408187017632
 31
0.0
1001
PHOENIX7010
1002
{
1070
    62
1070
     1
1070
    41
1040
1.0
1002
}
  0
LINE
  5
75B
102
{ACAD_REACTORS
330
BA4
102
}
330
1A
100
AcDbEntity
  8
BEMASSUNG
  6
Continuous
 62
     1
100
AcDbLine
 10
418.3495331924594
 20
241.5114666904011
 30
0.0
 11
418.7681625363921
 21
238.5408187017632
 31
0.0
1001
PHOENIX7010
1002
{
1070
    62
1070
     1
1070
    41
1040
1.0
1002
}
  0
LINE
  5
75C
102
{ACAD_REACTORS
330
BA4
102
}
330
1A
100
AcDbEntity
  8
BEMASSUNG
  6
Continuous
 62
     1
100
AcDbLine
 10
418.3495331924594
 20
213.711509410401
 30
0.0
 11
418.7681625363921
 21
216.6821573990389
 31
0.0
1001
PHOENIX7010
1002
{
1070
    62
1070
     1
1070
    41
1040
1.0
1002
}
  0
LINE
  5
75D
102
{ACAD_REACTORS
330
BA4
102
}
330
1A
100
AcDbEntity
  8
BEMASSUNG
  6
Continuous
 62
     1
100
AcDbLine
 10
418.3495331924594
 20
213.711509410401
 30
0.0
 11
417.9309038485267
 21
216.6821573990389
 31
0.0
1001
PHOENIX7010
1002
{
1070
    62
1070
     1
1070
    41
1040
1.0
1002
}
  0
LINE
  5
75E
102
{ACAD_REACTORS
330
BA4
102
}
330
1A
100
AcDbEntity
  8
BEMASSUNG
  6
Continuous
 62
     1
100
AcDbLine
 10
418.3495331924594
 20
213.711509410401
 30
0.0
 11
418.3495331924594
 21
241.5114666904011
 31
0.0
1001
PHOENIX7010
1002
{
1070
    62
1070
     1
1070
    41
1040
1.0
1002
}
  0
LINE
  5
75F
102
{ACAD_REACTORS
330
BA4
102
}
330
1A
100
AcDbEntity
  8
BEMASSUNG
  6
Continuous
 62
     1
100
AcDbLine
 10
406.3495312924594
 20
241.5114666904011
 30
0.0
 11
420.3495331924594
 21
241.5114666904011
 31
0.0
1001
PHOENIX7010
1002
{
1070
    62
1070
     1
1070
    41
1040
1.0
1002
}
  0
LINE
  5
760
102
{ACAD_REACTORS
330
BA4
102
}
330
1A
100
AcDbEntity
  8
BEMASSUNG
  6
Continuous
 62
     1
100
AcDbLine
 10
406.3495312924594
 20
213.711509410401
 30
0.0
 11
420.3495331924594
 21
213.711509410401
 31
0.0
1001
PHOENIX7010
1002
{
1070
    62
1070
     1
1070
    41
1040
1.0
1002
}
  0
TEXT
  5
763
102
{ACAD_REACTORS
330
BA5
102
}
330
1A
100
AcDbEntity
  8
BEMASSUNG
  6
Continuous
 62
     5
100
AcDbText
 10
382.8265662920177
 20
194.2115093817392
 30
0.0
 40
5.0
  1
37
 50
359.9999973188484
 41
1.5
100
AcDbText
1001
PHOENIX7010
1002
{
1070
    62
1070
     5
1070
    41
1040
1.0
1002
}
  0
LINE
  5
764
102
{ACAD_REACTORS
330
BA5
102
}
330
1A
100
AcDbEntity
  8
BEMASSUNG
  6
Continuous
 62
     1
100
AcDbLine
 10
406.3495312924594
 20
191.711509410401
 30
0.0
 11
403.3788833038214
 21
192.1301387543337
 31
0.0
1001
PHOENIX7010
1002
{
1070
    62
1070
     1
1070
    41
1040
1.0
1002
}
  0
LINE
  5
765
102
{ACAD_REACTORS
330
BA5
102
}
330
1A
100
AcDbEntity
  8
BEMASSUNG
  6
Continuous
 62
     1
100
AcDbLine
 10
406.3495312924594
 20
191.711509410401
 30
0.0
 11
403.3788833038214
 21
191.2928800664683
 31
0.0
1001
PHOENIX7010
1002
{
1070
    62
1070
     1
1070
    41
1040
1.0
1002
}
  0
LINE
  5
766
102
{ACAD_REACTORS
330
BA5
102
}
330
1A
100
AcDbEntity
  8
BEMASSUNG
  6
Continuous
 62
     1
100
AcDbLine
 10
369.3495312924594
 20
191.711509410401
 30
0.0
 11
372.3201792810974
 21
191.2928800664683
 31
0.0
1001
PHOENIX7010
1002
{
1070
    62
1070
     1
1070
    41
1040
1.0
1002
}
  0
LINE
  5
767
102
{ACAD_REACTORS
330
BA5
102
}
330
1A
100
AcDbEntity
  8
BEMASSUNG
  6
Continuous
 62
     1
100
AcDbLine
 10
369.3495312924594
 20
191.711509410401
 30
0.0
 11
372.3201792810974
 21
192.1301387543337
 31
0.0
1001
PHOENIX7010
1002
{
1070
    62
1070
     1
1070
    41
1040
1.0
1002
}
  0
LINE
  5
768
102
{ACAD_REACTORS
330
BA5
102
}
330
1A
100
AcDbEntity
  8
BEMASSUNG
  6
Continuous
 62
     1
100
AcDbLine
 10
369.3495312924594
 20
191.711509410401
 30
0.0
 11
406.3495312924594
 21
191.711509410401
 31
0.0
1001
PHOENIX7010
1002
{
1070
    62
1070
     1
1070
    41
1040
1.0
1002
}
  0
LINE
  5
769
102
{ACAD_REACTORS
330
BA5
102
}
330
1A
100
AcDbEntity
  8
BEMASSUNG
  6
Continuous
 62
     1
100
AcDbLine
 10
406.3495312924594
 20
213.711509410401
 30
0.0
 11
406.3495312924594
 21
189.711509410401
 31
0.0
1001
PHOENIX7010
1002
{
1070
    62
1070
     1
1070
    41
1040
1.0
1002
}
  0
LINE
  5
76A
102
{ACAD_REACTORS
330
BA5
102
}
330
1A
100
AcDbEntity
  8
BEMASSUNG
  6
Continuous
 62
     1
100
AcDbLine
 10
369.3495312924595
 20
236.611472790401
 30
0.0
 11
369.3495312924594
 21
189.711509410401
 31
0.0
1001
PHOENIX7010
1002
{
1070
    62
1070
     1
1070
    41
1040
1.0
1002
}
  0
TEXT
  5
76D
102
{ACAD_REACTORS
330
BA6
102
}
330
1A
100
AcDbEntity
  8
BEMASSUNG
  6
Continuous
 62
     5
100
AcDbText
 10
333.5880805131531
 20
110.2317730617392
 30
0.0
 40
5.0
  1
9
 50
359.99999731885
 41
1.5
100
AcDbText
1001
PHOENIX7010
1002
{
1070
    62
1070
     5
1070
    41
1040
1.0
1002
}
  0
LINE
  5
76E
102
{ACAD_REACTORS
330
BA6
102
}
330
1A
100
AcDbEntity
  8
BEMASSUNG
  6
Continuous
 62
     1
100
AcDbLine
 10
331.5897643336785
 20
107.731773090401
 30
0.0
 11
340.5897643336785
 21
107.731773090401
 31
0.0
1001
PHOENIX7010
1002
{
1070
    62
1070
     1
1070
    41
1040
1.0
1002
}
  0
LINE
  5
76F
102
{ACAD_REACTORS
330
BA6
102
}
330
1A
100
AcDbEntity
  8
BEMASSUNG
  6
Continuous
 62
     1
100
AcDbLine
 10
331.5897643336785
 20
107.731773090401
 30
0.0
 11
328.6191163450406
 21
108.1504024343338
 31
0.0
1001
PHOENIX7010
1002
{
1070
    62
1070
     1
1070
    41
1040
1.0
1002
}
  0
LINE
  5
770
102
{ACAD_REACTORS
330
BA6
102
}
330
1A
100
AcDbEntity
  8
BEMASSUNG
  6
Continuous
 62
     1
100
AcDbLine
 10
331.5897643336785
 20
107.731773090401
 30
0.0
 11
328.6191163450406
 21
107.3131437464683
 31
0.0
1001
PHOENIX7010
1002
{
1070
    62
1070
     1
1070
    41
1040
1.0
1002
}
  0
LINE
  5
771
102
{ACAD_REACTORS
330
BA6
102
}
330
1A
100
AcDbEntity
  8
BEMASSUNG
  6
Continuous
 62
     1
100
AcDbLine
 10
321.5897643336785
 20
107.731773090401
 30
0.0
 11
331.5897643336785
 21
107.731773090401
 31
0.0
1001
PHOENIX7010
1002
{
1070
    62
1070
     1
1070
    41
1040
1.0
1002
}
  0
LINE
  5
772
102
{ACAD_REACTORS
330
BA6
102
}
330
1A
100
AcDbEntity
  8
BEMASSUNG
  6
Continuous
 62
     1
100
AcDbLine
 10
340.5897643336785
 20
107.731773090401
 30
0.0
 11
343.5604123223165
 21
107.3131437464683
 31
0.0
1001
PHOENIX7010
1002
{
1070
    62
1070
     1
1070
    41
1040
1.0
1002
}
  0
LINE
  5
773
102
{ACAD_REACTORS
330
BA6
102
}
330
1A
100
AcDbEntity
  8
BEMASSUNG
  6
Continuous
 62
     1
100
AcDbLine
 10
340.5897643336785
 20
107.731773090401
 30
0.0
 11
343.5604123223165
 21
108.1504024343338
 31
0.0
1001
PHOENIX7010
1002
{
1070
    62
1070
     1
1070
    41
1040
1.0
1002
}
  0
LINE
  5
774
102
{ACAD_REACTORS
330
BA6
102
}
330
1A
100
AcDbEntity
  8
BEMASSUNG
  6
Continuous
 62
     1
100
AcDbLine
 10
350.5897643336785
 20
107.731773090401
 30
0.0
 11
340.5897643336785
 21
107.731773090401
 31
0.0
1001
PHOENIX7010
1002
{
1070
    62
1070
     1
1070
    41
1040
1.0
1002
}
  0
LINE
  5
775
102
{ACAD_REACTORS
330
BA6
102
}
330
1A
100
AcDbEntity
  8
BEMASSUNG
  6
Continuous
 62
     1
100
AcDbLine
 10
340.5897643336786
 20
119.731773090401
 30
0.0
 11
340.5897643336785
 21
105.731773090401
 31
0.0
1001
PHOENIX7010
1002
{
1070
    62
1070
     1
1070
    41
1040
1.0
1002
}
  0
LINE
  5
776
102
{ACAD_REACTORS
330
BA6
102
}
330
1A
100
AcDbEntity
  8
BEMASSUNG
  6
Continuous
 62
     1
100
AcDbLine
 10
331.5897643336786
 20
122.731773090401
 30
0.0
 11
331.5897643336785
 21
105.731773090401
 31
0.0
1001
PHOENIX7010
1002
{
1070
    62
1070
     1
1070
    41
1040
1.0
1002
}
  0
TEXT
  5
779
102
{ACAD_REACTORS
330
BA7
102
}
330
1A
100
AcDbEntity
  8
BEMASSUNG
  6
Continuous
 62
     5
100
AcDbText
 10
76.63610980646978
 20
110.2315289217392
 30
0.0
 40
5.0
  1
9
 50
359.99999731885
 41
1.5
100
AcDbText
1001
PHOENIX7010
1002
{
1070
    62
1070
     5
1070
    41
1040
1.0
1002
}
  0
LINE
  5
77A
102
{ACAD_REACTORS
330
BA7
102
}
330
1A
100
AcDbEntity
  8
BEMASSUNG
  6
Continuous
 62
     1
100
AcDbLine
 10
74.73991081367848
 20
107.7315289504011
 30
0.0
 11
83.73991081367847
 21
107.7315289504011
 31
0.0
1001
PHOENIX7010
1002
{
1070
    62
1070
     1
1070
    41
1040
1.0
1002
}
  0
LINE
  5
77B
102
{ACAD_REACTORS
330
BA7
102
}
330
1A
100
AcDbEntity
  8
BEMASSUNG
  6
Continuous
 62
     1
100
AcDbLine
 10
74.73991081367848
 20
107.7315289504011
 30
0.0
 11
71.76926282504059
 21
108.1501582943338
 31
0.0
1001
PHOENIX7010
1002
{
1070
    62
1070
     1
1070
    41
1040
1.0
1002
}
  0
LINE
  5
77C
102
{ACAD_REACTORS
330
BA7
102
}
330
1A
100
AcDbEntity
  8
BEMASSUNG
  6
Continuous
 62
     1
100
AcDbLine
 10
74.73991081367848
 20
107.7315289504011
 30
0.0
 11
71.76926282504059
 21
107.3128996064684
 31
0.0
1001
PHOENIX7010
1002
{
1070
    62
1070
     1
1070
    41
1040
1.0
1002
}
  0
LINE
  5
77D
102
{ACAD_REACTORS
330
BA7
102
}
330
1A
100
AcDbEntity
  8
BEMASSUNG
  6
Continuous
 62
     1
100
AcDbLine
 10
64.73991081367848
 20
107.7315289504011
 30
0.0
 11
74.73991081367848
 21
107.7315289504011
 31
0.0
1001
PHOENIX7010
1002
{
1070
    62
1070
     1
1070
    41
1040
1.0
1002
}
  0
LINE
  5
77E
102
{ACAD_REACTORS
330
BA7
102
}
330
1A
100
AcDbEntity
  8
BEMASSUNG
  6
Continuous
 62
     1
100
AcDbLine
 10
83.73991081367847
 20
107.7315289504011
 30
0.0
 11
86.71055880231637
 21
107.3128996064684
 31
0.0
1001
PHOENIX7010
1002
{
1070
    62
1070
     1
1070
    41
1040
1.0
1002
}
  0
LINE
  5
77F
102
{ACAD_REACTORS
330
BA7
102
}
330
1A
100
AcDbEntity
  8
BEMASSUNG
  6
Continuous
 62
     1
100
AcDbLine
 10
83.73991081367847
 20
107.7315289504011
 30
0.0
 11
86.71055880231637
 21
108.1501582943338
 31
0.0
1001
PHOENIX7010
1002
{
1070
    62
1070
     1
1070
    41
1040
1.0
1002
}
  0
LINE
  5
780
102
{ACAD_REACTORS
330
BA7
102
}
330
1A
100
AcDbEntity
  8
BEMASSUNG
  6
Continuous
 62
     1
100
AcDbLine
 10
93.73991081367847
 20
107.7315289504011
 30
0.0
 11
83.73991081367847
 21
107.7315289504011
 31
0.0
1001
PHOENIX7010
1002
{
1070
    62
1070
     1
1070
    41
1040
1.0
1002
}
  0
LINE
  5
781
102
{ACAD_REACTORS
330
BA7
102
}
330
1A
100
AcDbEntity
  8
BEMASSUNG
  6
Continuous
 62
     1
100
AcDbLine
 10
83.73991081367847
 20
122.7315289504011
 30
0.0
 11
83.73991081367847
 21
105.7315289504011
 31
0.0
1001
PHOENIX7010
1002
{
1070
    62
1070
     1
1070
    41
1040
1.0
1002
}
  0
LINE
  5
782
102
{ACAD_REACTORS
330
BA7
102
}
330
1A
100
AcDbEntity
  8
BEMASSUNG
  6
Continuous
 62
     1
100
AcDbLine
 10
74.73991081367848
 20
119.7315289504011
 30
0.0
 11
74.73991081367848
 21
105.7315289504011
 31
0.0
1001
PHOENIX7010
1002
{
1070
    62
1070
     1
1070
    41
1040
1.0
1002
}
  0
TEXT
  5
785
102
{ACAD_REACTORS
330
BA8
102
}
330
1A
100
AcDbEntity
  8
BEMASSUNG
  6
Continuous
 62
     5
100
AcDbText
 10
197.8931598084733
 20
181.2318035717392
 30
0.0
 40
5.0
  1
255.9
 50
359.9999973188484
 41
1.5
100
AcDbText
1001
PHOENIX7010
1002
{
1070
    62
1070
     5
1070
    41
1040
1.0
1002
}
  0
LINE
  5
786
102
{ACAD_REACTORS
330
BA8
102
}
330
1A
100
AcDbEntity
  8
BEMASSUNG
  6
Continuous
 62
     1
100
AcDbLine
 10
335.5897643336785
 20
178.731803600401
 30
0.0
 11
332.6191163450407
 21
179.1504329443337
 31
0.0
1001
PHOENIX7010
1002
{
1070
    62
1070
     1
1070
    41
1040
1.0
1002
}
  0
LINE
  5
787
102
{ACAD_REACTORS
330
BA8
102
}
330
1A
100
AcDbEntity
  8
BEMASSUNG
  6
Continuous
 62
     1
100
AcDbLine
 10
335.5897643336785
 20
178.731803600401
 30
0.0
 11
332.6191163450407
 21
178.3131742564683
 31
0.0
1001
PHOENIX7010
1002
{
1070
    62
1070
     1
1070
    41
1040
1.0
1002
}
  0
LINE
  5
788
102
{ACAD_REACTORS
330
BA8
102
}
330
1A
100
AcDbEntity
  8
BEMASSUNG
  6
Continuous
 62
     1
100
AcDbLine
 10
79.73991081367848
 20
178.7318036004011
 30
0.0
 11
82.71055880231637
 21
178.3131742564684
 31
0.0
1001
PHOENIX7010
1002
{
1070
    62
1070
     1
1070
    41
1040
1.0
1002
}
  0
LINE
  5
789
102
{ACAD_REACTORS
330
BA8
102
}
330
1A
100
AcDbEntity
  8
BEMASSUNG
  6
Continuous
 62
     1
100
AcDbLine
 10
79.73991081367848
 20
178.7318036004011
 30
0.0
 11
82.71055880231637
 21
179.1504329443338
 31
0.0
1001
PHOENIX7010
1002
{
1070
    62
1070
     1
1070
    41
1040
1.0
1002
}
  0
LINE
  5
78A
102
{ACAD_REACTORS
330
BA8
102
}
330
1A
100
AcDbEntity
  8
BEMASSUNG
  6
Continuous
 62
     1
100
AcDbLine
 10
79.73991081367848
 20
178.7318036004011
 30
0.0
 11
335.5897643336785
 21
178.731803600401
 31
0.0
1001
PHOENIX7010
1002
{
1070
    62
1070
     1
1070
    41
1040
1.0
1002
}
  0
LINE
  5
78B
102
{ACAD_REACTORS
330
BA8
102
}
330
1A
100
AcDbEntity
  8
BEMASSUNG
  6
Continuous
 62
     1
100
AcDbLine
 10
335.5897643336785
 20
153.101768200401
 30
0.0
 11
335.5897643336785
 21
180.731803600401
 31
0.0
1001
PHOENIX7010
1002
{
1070
    62
1070
     1
1070
    41
1040
1.0
1002
}
  0
LINE
  5
78C
102
{ACAD_REACTORS
330
BA8
102
}
330
1A
100
AcDbEntity
  8
BEMASSUNG
  6
Continuous
 62
     1
100
AcDbLine
 10
79.73991081367848
 20
153.1015545804011
 30
0.0
 11
79.73991081367848
 21
180.7318036004011
 31
0.0
1001
PHOENIX7010
1002
{
1070
    62
1070
     1
1070
    41
1040
1.0
1002
}
  0
LINE
  5
78D
330
1A
100
AcDbEntity
  8
HAUPTEBENE
  6
ACAD_ISO04W100
 62
     1
100
AcDbLine
 10
207.6648375736785
 20
161.7316815304011
 30
0.0
 11
207.6648375736785
 21
114.7315289504011
 31
0.0
1001
PHOENIX7010
1002
{
1070
    62
1070
     1
1070
    41
1040
1.0
1002
}
  0
LINE
  5
78E
330
1A
100
AcDbEntity
  8
HAUPTEBENE
  6
ACAD_ISO04W100
 62
     1
100
AcDbLine
 10
207.6648375736785
 20
208.7316815304011
 30
0.0
 11
207.6648375736785
 21
246.5115277204011
 31
0.0
1001
PHOENIX7010
1002
{
1070
    62
1070
     1
1070
    41
1040
1.0
1002
}
  0
TEXT
  5
791
102
{ACAD_REACTORS
330
BA9
102
}
330
1A
100
AcDbEntity
  8
BEMASSUNG
  6
Continuous
 62
     5
100
AcDbText
 10
123.1890645766305
 20
256.617478487
 30
0.0
 40
5.0
  1
6.8
 50
359.9999973188484
 41
1.5
100
AcDbText
1001
PHOENIX7010
1002
{
1070
    62
1070
     5
1070
    41
1040
1.0
1002
}
  0
LINE
  5
792
102
{ACAD_REACTORS
330
BA9
102
}
330
1A
100
AcDbEntity
  8
BEMASSUNG
  6
Continuous
 62
     1
100
AcDbLine
 10
109.0148131636785
 20
253.5118023804011
 30
0.0
 11
115.8148009536785
 21
253.5118023804011
 31
0.0
1001
PHOENIX7010
1002
{
1070
    62
1070
     1
1070
    41
1040
1.0
1002
}
  0
LINE
  5
793
102
{ACAD_REACTORS
330
BA9
102
}
330
1A
100
AcDbEntity
  8
BEMASSUNG
  6
Continuous
 62
     1
100
AcDbLine
 10
109.0148131636785
 20
253.5118023804011
 30
0.0
 11
106.0441651750406
 21
253.9304317243338
 31
0.0
1001
PHOENIX7010
1002
{
1070
    62
1070
     1
1070
    41
1040
1.0
1002
}
  0
LINE
  5
794
102
{ACAD_REACTORS
330
BA9
102
}
330
1A
100
AcDbEntity
  8
BEMASSUNG
  6
Continuous
 62
     1
100
AcDbLine
 10
109.0148131636785
 20
253.5118023804011
 30
0.0
 11
106.0441651750406
 21
253.0931730364684
 31
0.0
1001
PHOENIX7010
1002
{
1070
    62
1070
     1
1070
    41
1040
1.0
1002
}
  0
LINE
  5
795
102
{ACAD_REACTORS
330
BA9
102
}
330
1A
100
AcDbEntity
  8
BEMASSUNG
  6
Continuous
 62
     1
100
AcDbLine
 10
99.01481316367853
 20
253.5118023804011
 30
0.0
 11
109.0148131636785
 21
253.5118023804011
 31
0.0
1001
PHOENIX7010
1002
{
1070
    62
1070
     1
1070
    41
1040
1.0
1002
}
  0
LINE
  5
796
102
{ACAD_REACTORS
330
BA9
102
}
330
1A
100
AcDbEntity
  8
BEMASSUNG
  6
Continuous
 62
     1
100
AcDbLine
 10
115.8148009536785
 20
253.5118023804011
 30
0.0
 11
118.7854489423164
 21
253.0931730364684
 31
0.0
1001
PHOENIX7010
1002
{
1070
    62
1070
     1
1070
    41
1040
1.0
1002
}
  0
LINE
  5
797
102
{ACAD_REACTORS
330
BA9
102
}
330
1A
100
AcDbEntity
  8
BEMASSUNG
  6
Continuous
 62
     1
100
AcDbLine
 10
115.8148009536785
 20
253.5118023804011
 30
0.0
 11
118.7854489423164
 21
253.9304317243338
 31
0.0
1001
PHOENIX7010
1002
{
1070
    62
1070
     1
1070
    41
1040
1.0
1002
}
  0
LINE
  5
798
102
{ACAD_REACTORS
330
BA9
102
}
330
1A
100
AcDbEntity
  8
BEMASSUNG
  6
Continuous
 62
     1
100
AcDbLine
 10
125.8148009536785
 20
253.5118023804011
 30
0.0
 11
115.8148009536785
 21
253.5118023804011
 31
0.0
1001
PHOENIX7010
1002
{
1070
    62
1070
     1
1070
    41
1040
1.0
1002
}
  0
LINE
  5
799
102
{ACAD_REACTORS
330
BA9
102
}
330
1A
100
AcDbEntity
  8
BEMASSUNG
  6
Continuous
 62
     1
100
AcDbLine
 10
115.8148009536785
 20
223.8314740104011
 30
0.0
 11
115.8148009536785
 21
255.5118023804011
 31
0.0
1001
PHOENIX7010
1002
{
1070
    62
1070
     1
1070
    41
1040
1.0
1002
}
  0
LINE
  5
79A
102
{ACAD_REACTORS
330
BA9
102
}
330
1A
100
AcDbEntity
  8
BEMASSUNG
  6
Continuous
 62
     1
100
AcDbLine
 10
109.0148131636785
 20
223.8315655704011
 30
0.0
 11
109.0148131636785
 21
255.5118023804011
 31
0.0
1001
PHOENIX7010
1002
{
1070
    62
1070
     1
1070
    41
1040
1.0
1002
}
  0
TEXT
  5
79D
102
{ACAD_REACTORS
330
BAA
102
}
330
1A
100
AcDbEntity
  8
BEMASSUNG
  6
Continuous
 62
     5
100
AcDbText
 10
197.8931598084733
 20
276.0118023517392
 30
0.0
 40
5.0
  1
265.9
 50
359.9999973188516
 41
1.5
100
AcDbText
1001
PHOENIX7010
1002
{
1070
    62
1070
     5
1070
    41
1040
1.0
1002
}
  0
LINE
  5
79E
102
{ACAD_REACTORS
330
BAA
102
}
330
1A
100
AcDbEntity
  8
BEMASSUNG
  6
Continuous
 62
     1
100
AcDbLine
 10
340.5897643336786
 20
273.511802380401
 30
0.0
 11
337.6191163450406
 21
273.9304317243338
 31
0.0
1001
PHOENIX7010
1002
{
1070
    62
1070
     1
1070
    41
1040
1.0
1002
}
  0
LINE
  5
79F
102
{ACAD_REACTORS
330
BAA
102
}
330
1A
100
AcDbEntity
  8
BEMASSUNG
  6
Continuous
 62
     1
100
AcDbLine
 10
340.5897643336786
 20
273.511802380401
 30
0.0
 11
337.6191163450406
 21
273.0931730364683
 31
0.0
1001
PHOENIX7010
1002
{
1070
    62
1070
     1
1070
    41
1040
1.0
1002
}
  0
LINE
  5
7A0
102
{ACAD_REACTORS
330
BAA
102
}
330
1A
100
AcDbEntity
  8
BEMASSUNG
  6
Continuous
 62
     1
100
AcDbLine
 10
74.73991081367853
 20
273.5118023804012
 30
0.0
 11
77.71055880231642
 21
273.0931730364684
 31
0.0
1001
PHOENIX7010
1002
{
1070
    62
1070
     1
1070
    41
1040
1.0
1002
}
  0
LINE
  5
7A1
102
{ACAD_REACTORS
330
BAA
102
}
330
1A
100
AcDbEntity
  8
BEMASSUNG
  6
Continuous
 62
     1
100
AcDbLine
 10
74.73991081367853
 20
273.5118023804012
 30
0.0
 11
77.71055880231642
 21
273.9304317243338
 31
0.0
1001
PHOENIX7010
1002
{
1070
    62
1070
     1
1070
    41
1040
1.0
1002
}
  0
LINE
  5
7A2
102
{ACAD_REACTORS
330
BAA
102
}
330
1A
100
AcDbEntity
  8
BEMASSUNG
  6
Continuous
 62
     1
100
AcDbLine
 10
74.73991081367853
 20
273.5118023804012
 30
0.0
 11
340.5897643336786
 21
273.511802380401
 31
0.0
1001
PHOENIX7010
1002
{
1070
    62
1070
     1
1070
    41
1040
1.0
1002
}
  0
LINE
  5
7A3
102
{ACAD_REACTORS
330
BAA
102
}
330
1A
100
AcDbEntity
  8
BEMASSUNG
  6
Continuous
 62
     1
100
AcDbLine
 10
340.5897643336786
 20
241.5118023804011
 30
0.0
 11
340.5897643336786
 21
275.511802380401
 31
0.0
1001
PHOENIX7010
1002
{
1070
    62
1070
     1
1070
    41
1040
1.0
1002
}
  0
LINE
  5
7A4
102
{ACAD_REACTORS
330
BAA
102
}
330
1A
100
AcDbEntity
  8
BEMASSUNG
  6
Continuous
 62
     1
100
AcDbLine
 10
74.73991081367853
 20
241.5115277204011
 30
0.0
 11
74.73991081367853
 21
275.5118023804012
 31
0.0
1001
PHOENIX7010
1002
{
1070
    62
1070
     1
1070
    41
1040
1.0
1002
}
  0
TEXT
  5
7A7
102
{ACAD_REACTORS
330
BAB
102
}
330
1A
100
AcDbEntity
  8
BEMASSUNG
  6
Continuous
 62
     5
100
AcDbText
 10
195.1121579558565
 20
203.6847018238185
 30
0.0
 40
5.0
  1
190.5
 50
359.9999973188484
 41
1.5
100
AcDbText
1001
PHOENIX7010
1002
{
1070
    62
1070
     5
1070
    41
1040
1.0
1002
}
  0
LINE
  5
7A8
102
{ACAD_REACTORS
330
BAB
102
}
330
1A
100
AcDbEntity
  8
BEMASSUNG
  6
Continuous
 62
     1
100
AcDbLine
 10
112.4147765336785
 20
201.7315289504011
 30
0.0
 11
115.3854245223164
 21
201.3128996064684
 31
0.0
1001
PHOENIX7010
1002
{
1070
    62
1070
     1
1070
    41
1040
1.0
1002
}
  0
LINE
  5
7A9
102
{ACAD_REACTORS
330
BAB
102
}
330
1A
100
AcDbEntity
  8
BEMASSUNG
  6
Continuous
 62
     1
100
AcDbLine
 10
112.4147765336785
 20
201.7315289504011
 30
0.0
 11
115.3854245223164
 21
202.1501582943338
 31
0.0
1001
PHOENIX7010
1002
{
1070
    62
1070
     1
1070
    41
1040
1.0
1002
}
  0
LINE
  5
7AA
102
{ACAD_REACTORS
330
BAB
102
}
330
1A
100
AcDbEntity
  8
BEMASSUNG
  6
Continuous
 62
     1
100
AcDbLine
 10
302.9147765336785
 20
201.7315289504011
 30
0.0
 11
299.9441285450406
 21
202.1501582943338
 31
0.0
1001
PHOENIX7010
1002
{
1070
    62
1070
     1
1070
    41
1040
1.0
1002
}
  0
LINE
  5
7AB
102
{ACAD_REACTORS
330
BAB
102
}
330
1A
100
AcDbEntity
  8
BEMASSUNG
  6
Continuous
 62
     1
100
AcDbLine
 10
302.9147765336785
 20
201.7315289504011
 30
0.0
 11
299.9441285450406
 21
201.3128996064684
 31
0.0
1001
PHOENIX7010
1002
{
1070
    62
1070
     1
1070
    41
1040
1.0
1002
}
  0
LINE
  5
7AC
102
{ACAD_REACTORS
330
BAB
102
}
330
1A
100
AcDbEntity
  8
BEMASSUNG
  6
Continuous
 62
     1
100
AcDbLine
 10
302.9147765336785
 20
201.7315289504011
 30
0.0
 11
112.4147765336785
 21
201.7315289504011
 31
0.0
1001
PHOENIX7010
1002
{
1070
    62
1070
     1
1070
    41
1040
1.0
1002
}
  0
LINE
  5
7AD
102
{ACAD_REACTORS
330
BAB
102
}
330
1A
100
AcDbEntity
  8
BEMASSUNG
  6
Continuous
 62
     1
100
AcDbLine
 10
112.4147765336785
 20
214.9314801204011
 30
0.0
 11
112.4147765336785
 21
199.7315289504011
 31
0.0
1001
PHOENIX7010
1002
{
1070
    62
1070
     1
1070
    41
1040
1.0
1002
}
  0
LINE
  5
7AE
102
{ACAD_REACTORS
330
BAB
102
}
330
1A
100
AcDbEntity
  8
BEMASSUNG
  6
Continuous
 62
     1
100
AcDbLine
 10
302.9147765336785
 20
214.9317852904011
 30
0.0
 11
302.9147765336785
 21
199.731528950401
 31
0.0
1001
PHOENIX7010
1002
{
1070
    62
1070
     1
1070
    41
1040
1.0
1002
}
  0
LINE
  5
7B3
102
{ACAD_REACTORS
330
BAC
102
}
330
1A
100
AcDbEntity
  8
HAUPTEBENE
  6
Continuous
 62
     1
100
AcDbLine
 10
369.3495312924595
 20
236.7318646404011
 30
0.0
 11
369.6342602924594
 21
236.447074600401
 31
0.0
1001
PHOENIX7010
1002
{
1070
    62
1070
     1
1070
    41
1040
1.0
1002
}
  0
LINE
  5
7B4
102
{ACAD_REACTORS
330
BAC
102
}
330
1A
100
AcDbEntity
  8
HAUPTEBENE
  6
Continuous
 62
     1
100
AcDbLine
 10
370.3840771824595
 20
237.1114727904011
 30
0.0
 11
372.3840771824594
 21
235.1114727904011
 31
0.0
1001
PHOENIX7010
1002
{
1070
    62
1070
     1
1070
    41
1040
1.0
1002
}
  0
LINE
  5
7B5
102
{ACAD_REACTORS
330
BAC
102
}
330
1A
100
AcDbEntity
  8
HAUPTEBENE
  6
Continuous
 62
     1
100
AcDbLine
 10
371.7982617524594
 20
237.1114727904011
 30
0.0
 11
373.7982617524594
 21
235.1114727904011
 31
0.0
1001
PHOENIX7010
1002
{
1070
    62
1070
     1
1070
    41
1040
1.0
1002
}
  0
LINE
  5
7B6
102
{ACAD_REACTORS
330
BAC
102
}
330
1A
100
AcDbEntity
  8
HAUPTEBENE
  6
Continuous
 62
     1
100
AcDbLine
 10
373.2124463324594
 20
237.1114727904011
 30
0.0
 11
374.9795361724594
 21
235.344413470401
 31
0.0
1001
PHOENIX7010
1002
{
1070
    62
1070
     1
1070
    41
1040
1.0
1002
}
  0
LINE
  5
7B7
102
{ACAD_REACTORS
330
BAC
102
}
330
1A
100
AcDbEntity
  8
HAUPTEBENE
  6
Continuous
 62
     1
100
AcDbLine
 10
374.6266309024595
 20
237.1114727904011
 30
0.0
 11
374.9795361724594
 21
236.7585980404011
 31
0.0
1001
PHOENIX7010
1002
{
1070
    62
1070
     1
1070
    41
1040
1.0
1002
}
  0
LINE
  5
7B8
102
{ACAD_REACTORS
330
BAC
102
}
330
1A
100
AcDbEntity
  8
HAUPTEBENE
  6
Continuous
 62
     1
100
AcDbLine
 10
379.4795361724595
 20
236.5121991104011
 30
0.0
 11
380.8802319724595
 21
235.1114727904011
 31
0.0
1001
PHOENIX7010
1002
{
1070
    62
1070
     1
1070
    41
1040
1.0
1002
}
  0
LINE
  5
7B9
102
{ACAD_REACTORS
330
BAC
102
}
330
1A
100
AcDbEntity
  8
HAUPTEBENE
  6
Continuous
 62
     1
100
AcDbLine
 10
380.2944165424595
 20
237.1114727904011
 30
0.0
 11
382.2944165424594
 21
235.1114727904011
 31
0.0
1001
PHOENIX7010
1002
{
1070
    62
1070
     1
1070
    41
1040
1.0
1002
}
  0
LINE
  5
7BA
102
{ACAD_REACTORS
330
BAC
102
}
330
1A
100
AcDbEntity
  8
HAUPTEBENE
  6
Continuous
 62
     1
100
AcDbLine
 10
381.7086011124594
 20
237.1114727904011
 30
0.0
 11
383.7086011124594
 21
235.1114727904011
 31
0.0
1001
PHOENIX7010
1002
{
1070
    62
1070
     1
1070
    41
1040
1.0
1002
}
  0
LINE
  5
7BB
102
{ACAD_REACTORS
330
BAC
102
}
330
1A
100
AcDbEntity
  8
HAUPTEBENE
  6
Continuous
 62
     1
100
AcDbLine
 10
383.1227856824595
 20
237.1114727904011
 30
0.0
 11
385.1227856824595
 21
235.1114727904011
 31
0.0
1001
PHOENIX7010
1002
{
1070
    62
1070
     1
1070
    41
1040
1.0
1002
}
  0
LINE
  5
7BC
102
{ACAD_REACTORS
330
BAC
102
}
330
1A
100
AcDbEntity
  8
HAUPTEBENE
  6
Continuous
 62
     1
100
AcDbLine
 10
384.5369702524594
 20
237.1114727904011
 30
0.0
 11
385.5369702524594
 21
236.1114727904011
 31
0.0
1001
PHOENIX7010
1002
{
1070
    62
1070
     1
1070
    41
1040
1.0
1002
}
  0
LINE
  5
7BD
102
{ACAD_REACTORS
330
BAC
102
}
330
1A
100
AcDbEntity
  8
HAUPTEBENE
  6
Continuous
 62
     1
100
AcDbLine
 10
385.3295727924594
 20
237.733085340401
 30
0.0
 11
386.9511548224594
 21
236.1114727904011
 31
0.0
1001
PHOENIX7010
1002
{
1070
    62
1070
     1
1070
    41
1040
1.0
1002
}
  0
LINE
  5
7BE
102
{ACAD_REACTORS
330
BAC
102
}
330
1A
100
AcDbEntity
  8
HAUPTEBENE
  6
Continuous
 62
     1
100
AcDbLine
 10
389.1295605824594
 20
235.3472821204011
 30
0.0
 11
389.3653393924594
 21
235.1114727904011
 31
0.0
1001
PHOENIX7010
1002
{
1070
    62
1070
     1
1070
    41
1040
1.0
1002
}
  0
LINE
  5
7BF
102
{ACAD_REACTORS
330
BAC
102
}
330
1A
100
AcDbEntity
  8
HAUPTEBENE
  6
Continuous
 62
     1
100
AcDbLine
 10
386.3653393924594
 20
238.1114727904011
 30
0.0
 11
388.3653393924594
 21
236.1114727904011
 31
0.0
1001
PHOENIX7010
1002
{
1070
    62
1070
     1
1070
    41
1040
1.0
1002
}
  0
LINE
  5
7C0
102
{ACAD_REACTORS
330
BAC
102
}
330
1A
100
AcDbEntity
  8
HAUPTEBENE
  6
Continuous
 62
     1
100
AcDbLine
 10
387.7795239624595
 20
238.1114727904011
 30
0.0
 11
390.7795239624594
 21
235.1114727904011
 31
0.0
1001
PHOENIX7010
1002
{
1070
    62
1070
     1
1070
    41
1040
1.0
1002
}
  0
LINE
  5
7C1
102
{ACAD_REACTORS
330
BAC
102
}
330
1A
100
AcDbEntity
  8
HAUPTEBENE
  6
Continuous
 62
     1
100
AcDbLine
 10
390.1937085324594
 20
237.1114727904011
 30
0.0
 11
392.1937085324594
 21
235.1114727904011
 31
0.0
1001
PHOENIX7010
1002
{
1070
    62
1070
     1
1070
    41
1040
1.0
1002
}
  0
LINE
  5
7C2
102
{ACAD_REACTORS
330
BAC
102
}
330
1A
100
AcDbEntity
  8
HAUPTEBENE
  6
Continuous
 62
     1
100
AcDbLine
 10
391.6078931024594
 20
237.1114727904011
 30
0.0
 11
393.6078931024594
 21
235.1114727904011
 31
0.0
1001
PHOENIX7010
1002
{
1070
    62
1070
     1
1070
    41
1040
1.0
1002
}
  0
LINE
  5
7C3
102
{ACAD_REACTORS
330
BAC
102
}
330
1A
100
AcDbEntity
  8
HAUPTEBENE
  6
Continuous
 62
     1
100
AcDbLine
 10
393.0220776724594
 20
237.1114727904011
 30
0.0
 11
394.7495557024594
 21
235.384025280401
 31
0.0
1001
PHOENIX7010
1002
{
1070
    62
1070
     1
1070
    41
1040
1.0
1002
}
  0
LINE
  5
7C6
102
{ACAD_REACTORS
330
BAD
102
}
330
1A
100
AcDbEntity
  8
HAUPTEBENE
  6
Continuous
 62
     7
100
AcDbLine
 10
369.3495312924595
 20
236.611472790401
 30
0.0
 11
369.3495312924595
 21
237.1114727904011
 31
0.0
1001
PHOENIX7010
1002
{
1070
    62
1070
     7
1070
    41
1040
1.0
1002
}
  0
LINE
  5
7C7
102
{ACAD_REACTORS
330
BAD
102
}
330
1A
100
AcDbEntity
  8
HAUPTEBENE
  6
Continuous
 62
     7
100
AcDbLine
 10
371.9476147824594
 20
235.1114727904011
 30
0.0
 11
369.3495312924595
 21
236.611472790401
 31
0.0
1001
PHOENIX7010
1002
{
1070
    62
1070
     7
1070
    41
1040
1.0
1002
}
  0
LINE
  5
7C8
102
{ACAD_REACTORS
330
BAD
102
}
330
1A
100
AcDbEntity
  8
HAUPTEBENE
  6
Continuous
 62
     7
100
AcDbLine
 10
374.9795361724594
 20
235.1114727904011
 30
0.0
 11
371.9476147824594
 21
235.1114727904011
 31
0.0
1001
PHOENIX7010
1002
{
1070
    62
1070
     7
1070
    41
1040
1.0
1002
}
  0
LINE
  5
7C9
102
{ACAD_REACTORS
330
BAD
102
}
330
1A
100
AcDbEntity
  8
HAUPTEBENE
  6
Continuous
 62
     7
100
AcDbLine
 10
374.9795361724594
 20
237.1114727904011
 30
0.0
 11
374.9795361724594
 21
235.1114727904011
 31
0.0
1001
PHOENIX7010
1002
{
1070
    62
1070
     7
1070
    41
1040
1.0
1002
}
  0
LINE
  5
7CA
102
{ACAD_REACTORS
330
BAD
102
}
330
1A
100
AcDbEntity
  8
HAUPTEBENE
  6
Continuous
 62
     7
100
AcDbLine
 10
369.3495312924595
 20
237.1114727904011
 30
0.0
 11
374.9795361724594
 21
237.1114727904011
 31
0.0
1001
PHOENIX7010
1002
{
1070
    62
1070
     7
1070
    41
1040
1.0
1002
}
  0
LINE
  5
7CB
102
{ACAD_REACTORS
330
BAD
102
}
330
1A
100
AcDbEntity
  8
HAUPTEBENE
  6
Continuous
 62
     7
100
AcDbLine
 10
379.4795361724595
 20
235.1114727904011
 30
0.0
 11
379.4795361724595
 21
237.1114727904011
 31
0.0
1001
PHOENIX7010
1002
{
1070
    62
1070
     7
1070
    41
1040
1.0
1002
}
  0
LINE
  5
7CC
102
{ACAD_REACTORS
330
BAD
102
}
330
1A
100
AcDbEntity
  8
HAUPTEBENE
  6
Continuous
 62
     7
100
AcDbLine
 10
385.3295727924594
 20
235.1114727904011
 30
0.0
 11
379.4795361724595
 21
235.1114727904011
 31
0.0
1001
PHOENIX7010
1002
{
1070
    62
1070
     7
1070
    41
1040
1.0
1002
}
  0
LINE
  5
7CD
102
{ACAD_REACTORS
330
BAD
102
}
330
1A
100
AcDbEntity
  8
HAUPTEBENE
  6
Continuous
 62
     7
100
AcDbLine
 10
385.3295727924594
 20
236.1114727904011
 30
0.0
 11
385.3295727924594
 21
235.1114727904011
 31
0.0
1001
PHOENIX7010
1002
{
1070
    62
1070
     7
1070
    41
1040
1.0
1002
}
  0
LINE
  5
7CE
102
{ACAD_REACTORS
330
BAD
102
}
330
1A
100
AcDbEntity
  8
HAUPTEBENE
  6
Continuous
 62
     7
100
AcDbLine
 10
389.1295605824594
 20
236.1114727904011
 30
0.0
 11
385.3295727924594
 21
236.1114727904011
 31
0.0
1001
PHOENIX7010
1002
{
1070
    62
1070
     7
1070
    41
1040
1.0
1002
}
  0
LINE
  5
7CF
102
{ACAD_REACTORS
330
BAD
102
}
330
1A
100
AcDbEntity
  8
HAUPTEBENE
  6
Continuous
 62
     7
100
AcDbLine
 10
389.1295605824594
 20
235.1114727904011
 30
0.0
 11
389.1295605824594
 21
236.1114727904011
 31
0.0
1001
PHOENIX7010
1002
{
1070
    62
1070
     7
1070
    41
1040
1.0
1002
}
  0
LINE
  5
7D0
102
{ACAD_REACTORS
330
BAD
102
}
330
1A
100
AcDbEntity
  8
HAUPTEBENE
  6
Continuous
 62
     7
100
AcDbLine
 10
394.5070019924594
 20
235.1114727904011
 30
0.0
 11
389.1295605824594
 21
235.1114727904011
 31
0.0
1001
PHOENIX7010
1002
{
1070
    62
1070
     7
1070
    41
1040
1.0
1002
}
  0
ARC
  5
7D1
102
{ACAD_REACTORS
330
BAD
102
}
330
1A
100
AcDbEntity
  8
HAUPTEBENE
  6
Continuous
 62
     7
100
AcDbCircle
 10
394.5070019924594
 20
238.1114727904011
 30
0.0
 40
3.0
100
AcDbArc
 50
269.999999794321
 51
274.6376926484066
1001
PHOENIX7010
1002
{
1070
    62
1070
     7
1070
    41
1040
1.0
1002
}
  0
LINE
  5
7D2
102
{ACAD_REACTORS
330
BAD
102
}
330
1A
100
AcDbEntity
  8
HAUPTEBENE
  6
Continuous
 62
     7
100
AcDbLine
 10
394.7495557024594
 20
236.928428360401
 30
0.0
 11
394.7495557024594
 21
235.121421520401
 31
0.0
1001
PHOENIX7010
1002
{
1070
    62
1070
     7
1070
    41
1040
1.0
1002
}
  0
ARC
  5
7D3
102
{ACAD_REACTORS
330
BAD
102
}
330
1A
100
AcDbEntity
  8
HAUPTEBENE
  6
Continuous
 62
     7
100
AcDbCircle
 10
394.4995557024594
 20
237.3614727904011
 30
0.0
 40
0.5000274799999991
100
AcDbArc
 50
209.9981818677959
 51
299.9981820514353
1001
PHOENIX7010
1002
{
1070
    62
1070
     7
1070
    41
1040
1.0
1002
}
  0
LINE
  5
7D4
102
{ACAD_REACTORS
330
BAD
102
}
330
1A
100
AcDbEntity
  8
HAUPTEBENE
  6
Continuous
 62
     7
100
AcDbLine
 10
389.1295605824594
 20
237.1114727904011
 30
0.0
 11
394.0665112724594
 21
237.1114727904011
 31
0.0
1001
PHOENIX7010
1002
{
1070
    62
1070
     7
1070
    41
1040
1.0
1002
}
  0
LINE
  5
7D5
102
{ACAD_REACTORS
330
BAD
102
}
330
1A
100
AcDbEntity
  8
HAUPTEBENE
  6
Continuous
 62
     7
100
AcDbLine
 10
389.1295605824594
 20
238.1114727904011
 30
0.0
 11
389.1295605824594
 21
237.1114727904011
 31
0.0
1001
PHOENIX7010
1002
{
1070
    62
1070
     7
1070
    41
1040
1.0
1002
}
  0
LINE
  5
7D6
102
{ACAD_REACTORS
330
BAD
102
}
330
1A
100
AcDbEntity
  8
HAUPTEBENE
  6
Continuous
 62
     7
100
AcDbLine
 10
385.3295727924594
 20
238.1114727904011
 30
0.0
 11
389.1295605824594
 21
238.1114727904011
 31
0.0
1001
PHOENIX7010
1002
{
1070
    62
1070
     7
1070
    41
1040
1.0
1002
}
  0
LINE
  5
7D7
102
{ACAD_REACTORS
330
BAD
102
}
330
1A
100
AcDbEntity
  8
HAUPTEBENE
  6
Continuous
 62
     7
100
AcDbLine
 10
385.3295727924594
 20
237.1114727904011
 30
0.0
 11
385.3295727924594
 21
238.1114727904011
 31
0.0
1001
PHOENIX7010
1002
{
1070
    62
1070
     7
1070
    41
1040
1.0
1002
}
  0
LINE
  5
7D8
102
{ACAD_REACTORS
330
BAD
102
}
330
1A
100
AcDbEntity
  8
HAUPTEBENE
  6
Continuous
 62
     7
100
AcDbLine
 10
379.4795361724595
 20
237.1114727904011
 30
0.0
 11
385.3295727924594
 21
237.1114727904011
 31
0.0
1001
PHOENIX7010
1002
{
1070
    62
1070
     7
1070
    41
1040
1.0
1002
}
  0
LINE
  5
7DB
102
{ACAD_REACTORS
330
BAE
102
}
330
1A
100
AcDbEntity
  8
HAUPTEBENE
  6
Continuous
 62
     7
100
AcDbLine
 10
403.3495312924594
 20
241.5114666904011
 30
0.0
 11
406.3495312924594
 21
241.5114666904011
 31
0.0
1001
PHOENIX7010
1002
{
1070
    62
1070
     7
1070
    41
1040
1.0
1002
}
  0
LINE
  5
7DC
102
{ACAD_REACTORS
330
BAE
102
}
330
1A
100
AcDbEntity
  8
HAUPTEBENE
  6
Continuous
 62
     7
100
AcDbLine
 10
394.7495557024594
 20
239.111472790401
 30
0.0
 11
403.3495312924594
 21
239.111472790401
 31
0.0
1001
PHOENIX7010
1002
{
1070
    62
1070
     7
1070
    41
1040
1.0
1002
}
  0
LINE
  5
7DD
102
{ACAD_REACTORS
330
BAE
102
}
330
1A
100
AcDbEntity
  8
HAUPTEBENE
  6
Continuous
 62
     7
100
AcDbLine
 10
394.7495557024594
 20
237.794517230401
 30
0.0
 11
394.7495557024594
 21
239.111472790401
 31
0.0
1001
PHOENIX7010
1002
{
1070
    62
1070
     7
1070
    41
1040
1.0
1002
}
  0
ARC
  5
7DE
102
{ACAD_REACTORS
330
BAE
102
}
330
1A
100
AcDbEntity
  8
HAUPTEBENE
  6
Continuous
 62
     7
100
AcDbCircle
 10
394.4995557024594
 20
237.3614727904011
 30
0.0
 40
0.5000274800000064
100
AcDbArc
 50
299.9981820514353
 51
60.00181790448273
1001
PHOENIX7010
1002
{
1070
    62
1070
     7
1070
    41
1040
1.0
1002
}
  0
LINE
  5
7DF
102
{ACAD_REACTORS
330
BAE
102
}
330
1A
100
AcDbEntity
  8
HAUPTEBENE
  6
Continuous
 62
     7
100
AcDbLine
 10
379.4795361724595
 20
237.1114727904011
 30
0.0
 11
374.9795361724594
 21
237.1114727904011
 31
0.0
1001
PHOENIX7010
1002
{
1070
    62
1070
     7
1070
    41
1040
1.0
1002
}
  0
LINE
  5
7E0
102
{ACAD_REACTORS
330
BAE
102
}
330
1A
100
AcDbEntity
  8
HAUPTEBENE
  6
Continuous
 62
     7
100
AcDbLine
 10
379.4795361724595
 20
235.1114727904011
 30
0.0
 11
374.9795361724594
 21
235.1114727904011
 31
0.0
1001
PHOENIX7010
1002
{
1070
    62
1070
     7
1070
    41
1040
1.0
1002
}
  0
LINE
  5
7E1
102
{ACAD_REACTORS
330
BAE
102
}
330
1A
100
AcDbEntity
  8
HAUPTEBENE
  6
Continuous
 62
     7
100
AcDbLine
 10
385.3295727924594
 20
235.1114727904011
 30
0.0
 11
389.1295605824594
 21
235.1114727904011
 31
0.0
1001
PHOENIX7010
1002
{
1070
    62
1070
     7
1070
    41
1040
1.0
1002
}
  0
ARC
  5
7E2
102
{ACAD_REACTORS
330
BAE
102
}
330
1A
100
AcDbEntity
  8
HAUPTEBENE
  6
Continuous
 62
     7
100
AcDbCircle
 10
394.5070019924594
 20
238.1114727904011
 30
0.0
 40
2.999873150000004
100
AcDbArc
 50
274.6376932213615
 51
315.0028850151179
1001
PHOENIX7010
1002
{
1070
    62
1070
     7
1070
    41
1040
1.0
1002
}
  0
LINE
  5
7E3
102
{ACAD_REACTORS
330
BAE
102
}
330
1A
100
AcDbEntity
  8
HAUPTEBENE
  6
Continuous
 62
     7
100
AcDbLine
 10
397.7495557024594
 20
237.1114727904011
 30
0.0
 11
396.6283398824594
 21
235.990348530401
 31
0.0
1001
PHOENIX7010
1002
{
1070
    62
1070
     7
1070
    41
1040
1.0
1002
}
  0
LINE
  5
7E4
102
{ACAD_REACTORS
330
BAE
102
}
330
1A
100
AcDbEntity
  8
HAUPTEBENE
  6
Continuous
 62
     7
100
AcDbLine
 10
403.3495312924594
 20
237.1114727904011
 30
0.0
 11
397.7495557024594
 21
237.1114727904011
 31
0.0
1001
PHOENIX7010
1002
{
1070
    62
1070
     7
1070
    41
1040
1.0
1002
}
  0
LINE
  5
7E5
102
{ACAD_REACTORS
330
BAE
102
}
330
1A
100
AcDbEntity
  8
HAUPTEBENE
  6
Continuous
 62
     7
100
AcDbLine
 10
403.3495312924594
 20
213.711509410401
 30
0.0
 11
403.3495312924594
 21
241.5114666904011
 31
0.0
1001
PHOENIX7010
1002
{
1070
    62
1070
     7
1070
    41
1040
1.0
1002
}
  0
LINE
  5
7E6
102
{ACAD_REACTORS
330
BAE
102
}
330
1A
100
AcDbEntity
  8
HAUPTEBENE
  6
Continuous
 62
     7
100
AcDbLine
 10
406.3495312924594
 20
213.711509410401
 30
0.0
 11
403.3495312924594
 21
213.711509410401
 31
0.0
1001
PHOENIX7010
1002
{
1070
    62
1070
     7
1070
    41
1040
1.0
1002
}
  0
LINE
  5
7E7
102
{ACAD_REACTORS
330
BAE
102
}
330
1A
100
AcDbEntity
  8
HAUPTEBENE
  6
Continuous
 62
     7
100
AcDbLine
 10
406.3495312924594
 20
241.5114666904011
 30
0.0
 11
406.3495312924594
 21
213.711509410401
 31
0.0
1001
PHOENIX7010
1002
{
1070
    62
1070
     7
1070
    41
1040
1.0
1002
}
  0
LINE
  5
7E8
102
{ACAD_REACTORS
330
BAF
102
}
330
1A
100
AcDbEntity
  8
HAUPTEBENE
  6
ACAD_ISO04W100
 62
     1
100
AcDbLine
 10
377.2295361724595
 20
233.1114727904011
 30
0.0
 11
377.2295361724595
 21
239.111472790401
 31
0.0
1001
PHOENIX7010
1002
{
1070
    62
1070
     1
1070
    41
1040
1.0
1002
}
  0
LINE
  5
7E9
102
{ACAD_REACTORS
330
BAF
102
}
330
1A
100
AcDbEntity
  8
HAUPTEBENE
  6
ACAD_ISO04W100
 62
     1
100
AcDbLine
 10
387.2295361724594
 20
233.1114727904011
 30
0.0
 11
387.2295361724594
 21
240.1114727904011
 31
0.0
1001
PHOENIX7010
1002
{
1070
    62
1070
     1
1070
    41
1040
1.0
1002
}
  0
LINE
  5
7EA
102
{ACAD_REACTORS
330
BAF
102
}
330
1A
100
AcDbEntity
  8
HAUPTEBENE
  6
ACAD_ISO04W100
 62
     1
100
AcDbLine
 10
408.3495312924594
 20
223.831443500401
 30
0.0
 11
401.3495312924594
 21
223.831443500401
 31
0.0
1001
PHOENIX7010
1002
{
1070
    62
1070
     1
1070
    41
1040
1.0
1002
}
  0
LINE
  5
7EB
102
{ACAD_REACTORS
330
BAF
102
}
330
1A
100
AcDbEntity
  8
HAUPTEBENE
  6
ACAD_ISO04W100
 62
     1
100
AcDbLine
 10
401.3495312924594
 20
220.331443500401
 30
0.0
 11
408.3495312924594
 21
220.331443500401
 31
0.0
1001
PHOENIX7010
1002
{
1070
    62
1070
     1
1070
    41
1040
1.0
1002
}
  0
LINE
  5
7EE
102
{ACAD_REACTORS
330
BB0
102
}
330
1A
100
AcDbEntity
  8
HAUPTEBENE
  6
ACAD_ISO04W100
 62
     1
100
AcDbLine
 10
213.0897643336785
 20
144.6015545804011
 30
0.0
 11
213.0897643336786
 21
153.1015545804011
 31
0.0
1001
PHOENIX7010
1002
{
1070
    62
1070
     1
1070
    41
1040
1.0
1002
}
  0
LINE
  5
7EF
102
{ACAD_REACTORS
330
BB0
102
}
330
1A
100
AcDbEntity
  8
HAUPTEBENE
  6
ACAD_ISO04W100
 62
     1
100
AcDbLine
 10
202.2399108136785
 20
144.6015545804011
 30
0.0
 11
202.2399108136785
 21
153.1015545804011
 31
0.0
1001
PHOENIX7010
1002
{
1070
    62
1070
     1
1070
    41
1040
1.0
1002
}
  0
CIRCLE
  5
7F0
102
{ACAD_REACTORS
330
BB0
102
}
330
1A
100
AcDbEntity
  8
HAUPTEBENE
  6
Continuous
 62
     7
100
AcDbCircle
 10
202.2399108136785
 20
148.8515545804011
 30
0.0
 40
2.25
1001
PHOENIX7010
1002
{
1070
    62
1070
     7
1070
    41
1040
1.0
1002
}
  0
CIRCLE
  5
7F1
102
{ACAD_REACTORS
330
BB0
102
}
330
1A
100
AcDbEntity
  8
HAUPTEBENE
  6
Continuous
 62
     7
100
AcDbCircle
 10
213.0897643336786
 20
148.851798720401
 30
0.0
 40
2.25
1001
PHOENIX7010
1002
{
1070
    62
1070
     7
1070
    41
1040
1.0
1002
}
  0
LINE
  5
7F2
102
{ACAD_REACTORS
330
BB0
102
}
330
1A
100
AcDbEntity
  8
HAUPTEBENE
  6
Continuous
 62
     7
100
AcDbLine
 10
83.73991081367847
 20
122.7315289504011
 30
0.0
 11
83.73991081367847
 21
131.3315350504011
 31
0.0
1001
PHOENIX7010
1002
{
1070
    62
1070
     7
1070
    41
1040
1.0
1002
}
  0
CIRCLE
  5
7F3
102
{ACAD_REACTORS
330
BB0
102
}
330
1A
100
AcDbEntity
  8
HAUPTEBENE
  6
Continuous
 62
     7
100
AcDbCircle
 10
79.73991081367848
 20
138.8515545804011
 30
0.0
 40
1.89999986
1001
PHOENIX7010
1002
{
1070
    62
1070
     7
1070
    41
1040
1.0
1002
}
  0
CIRCLE
  5
7F4
102
{ACAD_REACTORS
330
BB0
102
}
330
1A
100
AcDbEntity
  8
HAUPTEBENE
  6
Continuous
 62
     7
100
AcDbCircle
 10
79.73991081367848
 20
148.8515545804011
 30
0.0
 40
2.25
1001
PHOENIX7010
1002
{
1070
    62
1070
     7
1070
    41
1040
1.0
1002
}
  0
LINE
  5
7F5
102
{ACAD_REACTORS
330
BB0
102
}
330
1A
100
AcDbEntity
  8
HAUPTEBENE
  6
ACAD_ISO04W100
 62
     1
100
AcDbLine
 10
79.73991081367848
 20
134.6015545804011
 30
0.0
 11
79.73991081367848
 21
153.1015545804011
 31
0.0
1001
PHOENIX7010
1002
{
1070
    62
1070
     1
1070
    41
1040
1.0
1002
}
  0
LINE
  5
7F6
102
{ACAD_REACTORS
330
BB0
102
}
330
1A
100
AcDbEntity
  8
HAUPTEBENE
  6
Continuous
 62
     7
100
AcDbLine
 10
74.73991081367848
 20
122.7315289504011
 30
0.0
 11
74.73991081367848
 21
119.7315289504011
 31
0.0
1001
PHOENIX7010
1002
{
1070
    62
1070
     7
1070
    41
1040
1.0
1002
}
  0
LINE
  5
7F7
102
{ACAD_REACTORS
330
BB0
102
}
330
1A
100
AcDbEntity
  8
HAUPTEBENE
  6
Continuous
 62
     7
100
AcDbLine
 10
74.73991081367848
 20
156.7315594604011
 30
0.0
 11
74.73991081367848
 21
131.3315350504011
 31
0.0
1001
PHOENIX7010
1002
{
1070
    62
1070
     7
1070
    41
1040
1.0
1002
}
  0
LINE
  5
7F8
102
{ACAD_REACTORS
330
BB0
102
}
330
1A
100
AcDbEntity
  8
HAUPTEBENE
  6
ACAD_ISO04W100
 62
     1
100
AcDbLine
 10
83.98991081367848
 20
138.8515545804011
 30
0.0
 11
75.48991081367848
 21
138.8515545804011
 31
0.0
1001
PHOENIX7010
1002
{
1070
    62
1070
     1
1070
    41
1040
1.0
1002
}
  0
LINE
  5
7F9
102
{ACAD_REACTORS
330
BB0
102
}
330
1A
100
AcDbEntity
  8
HAUPTEBENE
  6
Continuous
 62
     7
100
AcDbLine
 10
340.5897643336786
 20
132.014823620401
 30
0.0
 11
74.73991081367848
 21
132.0145794804011
 31
0.0
1001
PHOENIX7010
1002
{
1070
    62
1070
     7
1070
    41
1040
1.0
1002
}
  0
CIRCLE
  5
7FA
102
{ACAD_REACTORS
330
BB0
102
}
330
1A
100
AcDbEntity
  8
HAUPTEBENE
  6
Continuous
 62
     7
100
AcDbCircle
 10
335.5897643336785
 20
138.851798720401
 30
0.0
 40
1.89999986
1001
PHOENIX7010
1002
{
1070
    62
1070
     7
1070
    41
1040
1.0
1002
}
  0
CIRCLE
  5
7FB
102
{ACAD_REACTORS
330
BB0
102
}
330
1A
100
AcDbEntity
  8
HAUPTEBENE
  6
Continuous
 62
     7
100
AcDbCircle
 10
335.5897643336785
 20
148.851798720401
 30
0.0
 40
2.25
1001
PHOENIX7010
1002
{
1070
    62
1070
     7
1070
    41
1040
1.0
1002
}
  0
LINE
  5
7FC
102
{ACAD_REACTORS
330
BB0
102
}
330
1A
100
AcDbEntity
  8
HAUPTEBENE
  6
Continuous
 62
     7
100
AcDbLine
 10
331.5897643336786
 20
131.331779190401
 30
0.0
 11
331.5897643336786
 21
122.731773090401
 31
0.0
1001
PHOENIX7010
1002
{
1070
    62
1070
     7
1070
    41
1040
1.0
1002
}
  0
LINE
  5
7FD
102
{ACAD_REACTORS
330
BB0
102
}
330
1A
100
AcDbEntity
  8
HAUPTEBENE
  6
Continuous
 62
     7
100
AcDbLine
 10
340.5897643336786
 20
131.331779190401
 30
0.0
 11
74.73991081367848
 21
131.3315350504011
 31
0.0
1001
PHOENIX7010
1002
{
1070
    62
1070
     7
1070
    41
1040
1.0
1002
}
  0
LINE
  5
7FE
102
{ACAD_REACTORS
330
BB0
102
}
330
1A
100
AcDbEntity
  8
HAUPTEBENE
  6
ACAD_ISO04W100
 62
     1
100
AcDbLine
 10
335.5897643336785
 20
153.101768200401
 30
0.0
 11
335.5897643336785
 21
134.601798720401
 31
0.0
1001
PHOENIX7010
1002
{
1070
    62
1070
     1
1070
    41
1040
1.0
1002
}
  0
LINE
  5
7FF
102
{ACAD_REACTORS
330
BB0
102
}
330
1A
100
AcDbEntity
  8
HAUPTEBENE
  6
Continuous
 62
     7
100
AcDbLine
 10
340.5897643336786
 20
122.731773090401
 30
0.0
 11
340.5897643336786
 21
119.731773090401
 31
0.0
1001
PHOENIX7010
1002
{
1070
    62
1070
     7
1070
    41
1040
1.0
1002
}
  0
LINE
  5
800
102
{ACAD_REACTORS
330
BB0
102
}
330
1A
100
AcDbEntity
  8
HAUPTEBENE
  6
Continuous
 62
     7
100
AcDbLine
 10
340.5897643336786
 20
156.731803600401
 30
0.0
 11
340.5897643336786
 21
131.331779190401
 31
0.0
1001
PHOENIX7010
1002
{
1070
    62
1070
     7
1070
    41
1040
1.0
1002
}
  0
LINE
  5
801
102
{ACAD_REACTORS
330
BB0
102
}
330
1A
100
AcDbEntity
  8
HAUPTEBENE
  6
ACAD_ISO04W100
 62
     1
100
AcDbLine
 10
339.8397643336786
 20
148.851768200401
 30
0.0
 11
75.48991081367848
 21
148.8515545804011
 31
0.0
1001
PHOENIX7010
1002
{
1070
    62
1070
     1
1070
    41
1040
1.0
1002
}
  0
LINE
  5
802
102
{ACAD_REACTORS
330
BB0
102
}
330
1A
100
AcDbEntity
  8
HAUPTEBENE
  6
ACAD_ISO04W100
 62
     1
100
AcDbLine
 10
339.8397643336786
 20
138.851798720401
 30
0.0
 11
331.3397643336785
 21
138.851798720401
 31
0.0
1001
PHOENIX7010
1002
{
1070
    62
1070
     1
1070
    41
1040
1.0
1002
}
  0
LINE
  5
803
102
{ACAD_REACTORS
330
BB0
102
}
330
1A
100
AcDbEntity
  8
HAUPTEBENE
  6
Continuous
 62
     7
100
AcDbLine
 10
340.5897643336786
 20
156.731803600401
 30
0.0
 11
74.73991081367848
 21
156.7315594604011
 31
0.0
1001
PHOENIX7010
1002
{
1070
    62
1070
     7
1070
    41
1040
1.0
1002
}
  0
LINE
  5
804
102
{ACAD_REACTORS
330
BB0
102
}
330
1A
100
AcDbEntity
  8
HAUPTEBENE
  6
Continuous
 62
     7
100
AcDbLine
 10
340.5897643336786
 20
119.731773090401
 30
0.0
 11
74.73991081367848
 21
119.7315289504011
 31
0.0
1001
PHOENIX7010
1002
{
1070
    62
1070
     7
1070
    41
1040
1.0
1002
}
  0
LINE
  5
805
102
{ACAD_REACTORS
330
BB0
102
}
330
1A
100
AcDbEntity
  8
HAUPTEBENE
  6
Continuous
 62
     7
100
AcDbLine
 10
340.5897643336786
 20
122.731773090401
 30
0.0
 11
74.73991081367848
 21
122.7315289504011
 31
0.0
1001
PHOENIX7010
1002
{
1070
    62
1070
     7
1070
    41
1040
1.0
1002
}
  0
LINE
  5
808
102
{ACAD_REACTORS
330
BB2
102
}
330
1A
100
AcDbEntity
  8
HAUPTEBENE
  6
ACAD_ISO04W100
 62
     1
100
AcDbLine
 10
117.8148009536785
 20
223.8314740104011
 30
0.0
 11
107.0148131636785
 21
223.8314740104011
 31
0.0
1001
PHOENIX7010
1002
{
1070
    62
1070
     1
1070
    41
1040
1.0
1002
}
  0
LINE
  5
809
102
{ACAD_REACTORS
330
BB2
102
}
330
1A
100
AcDbEntity
  8
HAUPTEBENE
  6
ACAD_ISO04W100
 62
     1
100
AcDbLine
 10
117.8148009536785
 20
220.3314740104011
 30
0.0
 11
107.0148131636785
 21
220.3314740104012
 31
0.0
1001
PHOENIX7010
1002
{
1070
    62
1070
     1
1070
    41
1040
1.0
1002
}
  0
LINE
  5
80A
102
{ACAD_REACTORS
330
BB2
102
}
330
1A
100
AcDbEntity
  8
HAUPTEBENE
  6
ACAD_ISO04W100
 62
     1
100
AcDbLine
 10
308.3148009536785
 20
223.8317791904011
 30
0.0
 11
297.5147521236785
 21
223.8317791904011
 31
0.0
1001
PHOENIX7010
1002
{
1070
    62
1070
     1
1070
    41
1040
1.0
1002
}
  0
LINE
  5
80B
102
{ACAD_REACTORS
330
BB2
102
}
330
1A
100
AcDbEntity
  8
HAUPTEBENE
  6
ACAD_ISO04W100
 62
     1
100
AcDbLine
 10
308.3148009536785
 20
220.3317791904011
 30
0.0
 11
297.5147521236785
 21
220.3317791904011
 31
0.0
1001
PHOENIX7010
1002
{
1070
    62
1070
     1
1070
    41
1040
1.0
1002
}
  0
LINE
  5
80C
102
{ACAD_REACTORS
330
BB2
102
}
330
1A
100
AcDbEntity
  8
HAUPTEBENE
  6
ACAD_ISO04W100
 62
     1
100
AcDbLine
 10
112.4147765336785
 20
214.9314801204011
 30
0.0
 11
112.4147765336785
 21
229.2314679104011
 31
0.0
1001
PHOENIX7010
1002
{
1070
    62
1070
     1
1070
    41
1040
1.0
1002
}
  0
LINE
  5
80D
102
{ACAD_REACTORS
330
BB2
102
}
330
1A
100
AcDbEntity
  8
HAUPTEBENE
  6
ACAD_ISO04W100
 62
     1
100
AcDbLine
 10
302.9147765336785
 20
214.9317852904011
 30
0.0
 11
302.9147765336785
 21
229.2317730904011
 31
0.0
1001
PHOENIX7010
1002
{
1070
    62
1070
     1
1070
    41
1040
1.0
1002
}
  0
ARC
  5
810
102
{ACAD_REACTORS
330
BB1
102
}
330
1A
100
AcDbEntity
  8
HAUPTEBENE
  6
Continuous
 62
     7
100
AcDbCircle
 10
112.4147765336785
 20
220.3314740104012
 30
0.0
 40
3.399963380000014
100
AcDbArc
 50
179.9984572082969
 51
359.9999999779586
1001
PHOENIX7010
1002
{
1070
    62
1070
     7
1070
    41
1040
1.0
1002
}
  0
LINE
  5
811
102
{ACAD_REACTORS
330
BB1
102
}
330
1A
100
AcDbEntity
  8
HAUPTEBENE
  6
Continuous
 62
     7
100
AcDbLine
 10
115.8148009536785
 20
223.8314740104011
 30
0.0
 11
115.8148009536785
 21
220.3314740104012
 31
0.0
1001
PHOENIX7010
1002
{
1070
    62
1070
     7
1070
    41
1040
1.0
1002
}
  0
ARC
  5
812
102
{ACAD_REACTORS
330
BB1
102
}
330
1A
100
AcDbEntity
  8
HAUPTEBENE
  6
Continuous
 62
     7
100
AcDbCircle
 10
112.4147765336785
 20
223.8314740104011
 30
0.0
 40
3.400024410000014
100
AcDbArc
 50
359.9999999779586
 51
179.9984573698943
1001
PHOENIX7010
1002
{
1070
    62
1070
     7
1070
    41
1040
1.0
1002
}
  0
LINE
  5
813
102
{ACAD_REACTORS
330
BB1
102
}
330
1A
100
AcDbEntity
  8
HAUPTEBENE
  6
Continuous
 62
     7
100
AcDbLine
 10
109.0148131636785
 20
220.3315655704011
 30
0.0
 11
109.0148131636785
 21
223.8315655704011
 31
0.0
1001
PHOENIX7010
1002
{
1070
    62
1070
     7
1070
    41
1040
1.0
1002
}
  0
ARC
  5
814
102
{ACAD_REACTORS
330
BB1
102
}
330
1A
100
AcDbEntity
  8
HAUPTEBENE
  6
Continuous
 62
     7
100
AcDbCircle
 10
302.9147765336785
 20
220.3317791904011
 30
0.0
 40
3.399963380000002
100
AcDbArc
 50
180.0000001836388
 51
359.9999999779586
1001
PHOENIX7010
1002
{
1070
    62
1070
     7
1070
    41
1040
1.0
1002
}
  0
LINE
  5
815
102
{ACAD_REACTORS
330
BB1
102
}
330
1A
100
AcDbEntity
  8
HAUPTEBENE
  6
Continuous
 62
     7
100
AcDbLine
 10
299.5148131636785
 20
223.8317791904011
 30
0.0
 11
299.5148131636785
 21
220.3317791904011
 31
0.0
1001
PHOENIX7010
1002
{
1070
    62
1070
     7
1070
    41
1040
1.0
1002
}
  0
ARC
  5
816
102
{ACAD_REACTORS
330
BB1
102
}
330
1A
100
AcDbEntity
  8
HAUPTEBENE
  6
Continuous
 62
     7
100
AcDbCircle
 10
302.9147765336785
 20
223.8317791904011
 30
0.0
 40
3.400024410000014
100
AcDbArc
 50
359.9999999779586
 51
179.9999997722792
1001
PHOENIX7010
1002
{
1070
    62
1070
     7
1070
    41
1040
1.0
1002
}
  0
LINE
  5
817
102
{ACAD_REACTORS
330
BB1
102
}
330
1A
100
AcDbEntity
  8
HAUPTEBENE
  6
Continuous
 62
     7
100
AcDbLine
 10
306.3148009536785
 20
220.3317791904011
 30
0.0
 11
306.3148009536785
 21
223.8317791904011
 31
0.0
1001
PHOENIX7010
1002
{
1070
    62
1070
     7
1070
    41
1040
1.0
1002
}
  0
LINE
  5
818
102
{ACAD_REACTORS
330
BB1
102
}
330
1A
100
AcDbEntity
  8
HAUPTEBENE
  6
Continuous
 62
     7
100
AcDbLine
 10
340.5897643336786
 20
241.5118023804011
 30
0.0
 11
340.5897643336786
 21
213.731803600401
 31
0.0
1001
PHOENIX7010
1002
{
1070
    62
1070
     7
1070
    41
1040
1.0
1002
}
  0
LINE
  5
819
102
{ACAD_REACTORS
330
BB1
102
}
330
1A
100
AcDbEntity
  8
HAUPTEBENE
  6
Continuous
 62
     7
100
AcDbLine
 10
74.73991081367853
 20
241.5115277204011
 30
0.0
 11
340.5897643336786
 21
241.5118023804011
 31
0.0
1001
PHOENIX7010
1002
{
1070
    62
1070
     7
1070
    41
1040
1.0
1002
}
  0
LINE
  5
81A
102
{ACAD_REACTORS
330
BB1
102
}
330
1A
100
AcDbEntity
  8
HAUPTEBENE
  6
Continuous
 62
     7
100
AcDbLine
 10
74.73991081367853
 20
213.7315289504011
 30
0.0
 11
74.73991081367853
 21
241.5115277204011
 31
0.0
1001
PHOENIX7010
1002
{
1070
    62
1070
     7
1070
    41
1040
1.0
1002
}
  0
LINE
  5
81B
102
{ACAD_REACTORS
330
BB1
102
}
330
1A
100
AcDbEntity
  8
HAUPTEBENE
  6
Continuous
 62
     7
100
AcDbLine
 10
340.5897643336786
 20
213.731803600401
 30
0.0
 11
74.73991081367853
 21
213.7315289504011
 31
0.0
1001
PHOENIX7010
1002
{
1070
    62
1070
     7
1070
    41
1040
1.0
1002
}
  0
LINE
  5
C2E
102
{ACAD_REACTORS
330
C40
102
}
330
1A
100
AcDbEntity
  8
0
  6
Continuous
 62
     1
370
    50
100
AcDbLine
 10
403.0
 20
1.000000000000113
 30
0.0
 11
403.0
 21
5.000000000000113
 31
0.0
1001
PHOENIX7010
1002
{
1070
    62
1070
     1
1070
    41
1040
1.0
1002
}
  0
LINE
  5
C2F
102
{ACAD_REACTORS
330
C40
102
}
330
1A
100
AcDbEntity
  8
0
  6
Continuous
 62
     3
370
    50
100
AcDbLine
 10
589.0
 20
415.0000000000001
 30
0.0
 11
589.0
 21
5.000000000000113
 31
0.0
1001
PHOENIX7010
1002
{
1070
    62
1070
     3
1070
    41
1040
1.0
1002
}
  0
LINE
  5
C30
102
{ACAD_REACTORS
330
C40
102
}
330
1A
100
AcDbEntity
  8
0
  6
Continuous
 62
     3
370
    50
100
AcDbLine
 10
20.0
 20
415.0000000000001
 30
0.0
 11
589.0
 21
415.0000000000001
 31
0.0
1001
PHOENIX7010
1002
{
1070
    62
1070
     3
1070
    41
1040
1.0
1002
}
  0
LINE
  5
C31
102
{ACAD_REACTORS
330
C40
102
}
330
1A
100
AcDbEntity
  8
0
  6
Continuous
 62
     1
370
    50
100
AcDbLine
 10
116.0
 20
5.000000000000113
 30
0.0
 11
116.0
 21
1.000000000000113
 31
0.0
1001
PHOENIX7010
1002
{
1070
    62
1070
     1
1070
    41
1040
1.0
1002
}
  0
LINE
  5
C32
102
{ACAD_REACTORS
330
C40
102
}
330
1A
100
AcDbEntity
  8
0
  6
Continuous
 62
     1
370
    50
100
AcDbLine
 10
116.0
 20
419.0000000000001
 30
0.0
 11
116.0
 21
415.0000000000001
 31
0.0
1001
PHOENIX7010
1002
{
1070
    62
1070
     1
1070
    41
1040
1.0
1002
}
  0
LINE
  5
C33
102
{ACAD_REACTORS
330
C40
102
}
330
1A
100
AcDbEntity
  8
0
  6
Continuous
 62
     1
370
    50
100
AcDbLine
 10
213.0
 20
5.000000000000113
 30
0.0
 11
213.0
 21
1.000000000000113
 31
0.0
1001
PHOENIX7010
1002
{
1070
    62
1070
     1
1070
    41
1040
1.0
1002
}
  0
LINE
  5
C34
102
{ACAD_REACTORS
330
C40
102
}
330
1A
100
AcDbEntity
  8
0
  6
Continuous
 62
     1
370
    50
100
AcDbLine
 10
213.0
 20
419.0000000000001
 30
0.0
 11
213.0
 21
415.0000000000001
 31
0.0
1001
PHOENIX7010
1002
{
1070
    62
1070
     1
1070
    41
1040
1.0
1002
}
  0
LINE
  5
C35
102
{ACAD_REACTORS
330
C40
102
}
330
1A
100
AcDbEntity
  8
0
  6
Continuous
 62
     1
370
    50
100
AcDbLine
 10
403.0
 20
419.0000000000001
 30
0.0
 11
403.0
 21
415.0000000000001
 31
0.0
1001
PHOENIX7010
1002
{
1070
    62
1070
     1
1070
    41
1040
1.0
1002
}
  0
LINE
  5
C36
102
{ACAD_REACTORS
330
C40
102
}
330
1A
100
AcDbEntity
  8
0
  6
Continuous
 62
     3
370
    50
100
AcDbLine
 10
20.0
 20
5.000000000000113
 30
0.0
 11
20.0
 21
415.0000000000001
 31
0.0
1001
PHOENIX7010
1002
{
1070
    62
1070
     3
1070
    41
1040
1.0
1002
}
  0
LINE
  5
C37
102
{ACAD_REACTORS
330
C40
102
}
330
1A
100
AcDbEntity
  8
0
  6
Continuous
 62
     3
370
    50
100
AcDbLine
 10
589.0
 20
5.000000000000113
 30
0.0
 11
20.0
 21
5.000000000000113
 31
0.0
1001
PHOENIX7010
1002
{
1070
    62
1070
     3
1070
    41
1040
1.0
1002
}
  0
LINE
  5
C38
102
{ACAD_REACTORS
330
C40
102
}
330
1A
100
AcDbEntity
  8
0
  6
Continuous
 62
     1
370
    50
100
AcDbLine
 10
1.0
 20
1.000000000000113
 30
0.0
 11
1.0
 21
419.0000000000001
 31
0.0
1001
PHOENIX7010
1002
{
1070
    62
1070
     1
1070
    41
1040
1.0
1002
}
  0
LINE
  5
C39
102
{ACAD_REACTORS
330
C40
102
}
330
1A
100
AcDbEntity
  8
0
  6
Continuous
 62
     1
370
    50
100
AcDbLine
 10
1.0
 20
419.0000000000001
 30
0.0
 11
593.0
 21
419.0000000000001
 31
0.0
1001
PHOENIX7010
1002
{
1070
    62
1070
     1
1070
    41
1040
1.0
1002
}
  0
LINE
  5
C3A
102
{ACAD_REACTORS
330
C40
102
}
330
1A
100
AcDbEntity
  8
0
  6
Continuous
 62
     1
370
    50
100
AcDbLine
 10
593.0
 20
419.0000000000001
 30
0.0
 11
593.0
 21
1.000000000000113
 31
0.0
1001
PHOENIX7010
1002
{
1070
    62
1070
     1
1070
    41
1040
1.0
1002
}
  0
LINE
  5
C3B
102
{ACAD_REACTORS
330
C40
102
}
330
1A
100
AcDbEntity
  8
0
  6
Continuous
 62
     1
370
    50
100
AcDbLine
 10
593.0
 20
1.000000000000113
 30
0.0
 11
1.0
 21
1.000000000000113
 31
0.0
1001
PHOENIX7010
1002
{
1070
    62
1070
     1
1070
    41
1040
1.0
1002
}
  0
LINE
  5
C3C
102
{ACAD_REACTORS
330
C40
102
}
330
1A
100
AcDbEntity
  8
0
  6
Continuous
 62
     1
370
    50
100
AcDbLine
 10
589.0
 20
297.0000000000001
 30
0.0
 11
593.0
 21
297.0000000000001
 31
0.0
1001
PHOENIX7010
1002
{
1070
    62
1070
     1
1070
    41
1040
1.0
1002
}
  0
MTEXT
  5
C3D
102
{ACAD_REACTORS
330
C40
102
}
330
1A
100
AcDbEntity
  8
0
  6
Continuous
 62
     7
370
    50
100
AcDbMText
 10
19.70248718641096
 20
55.39351207913353
 30
0.0
 40
2.0
 41
0.0
 71
     7
 72
     5
  1
{\T1.1;\C1;"Schutzvermerk nach DIN ISO 16016 beachten" \Q20;"Please pay attention to copyright note DIN ISO 16016"}
 11
0.0000000000000002
 21
1.0
 31
0.0
 73
     1
 44
1.0
1001
PHOENIX7010
1002
{
1070
    41
1040
1.0
1002
}
1001
ACAD
1000
MTEXTBEGIN
1070
    73
1070
     1
1070
    44
1040
1.0
1070
    74
1070
     0
1000
MTEXTEND
  0
INSERT
  5
C3E
102
{ACAD_REACTORS
330
C40
102
}
330
1A
100
AcDbEntity
  8
0
  6
Continuous
 62
     1
370
    50
100
AcDbBlockReference
  2
PH_GRPBLK
 10
403.0
 20
1.000000000000113
 30
0.0
1001
PHOENIX7010
1002
{
1070
    41
1040
1.0
1002
}
  0
HATCH
  5
C44
102
{ACAD_REACTORS
330
C8C
102
}
330
1A
100
AcDbEntity
  8
0
  6
Continuous
 62
     1
370
    25
100
AcDbHatch
 10
0.0
 20
0.0
 30
0.0
210
0.0
220
0.0
230
1.0
  2
_U
 70
     0
 71
     1
 91
        1
 92
        0
 93
        5
 72
     1
 10
581.4334749940253
 20
35.16453811398049
 11
574.7334749940255
 21
27.36453811398042
 72
     1
 10
574.7334749940255
 20
27.36453811398042
 11
586.7334749940255
 21
27.36453811398042
 72
     1
 10
586.7334749940255
 20
27.36453811398042
 11
586.7334749940255
 21
35.16453811398049
 72
     1
 10
586.7334749940255
 20
35.16453811398037
 11
581.4334749940253
 21
28.26453811398051
 72
     1
 10
581.4334749940253
 20
28.26453811398051
 11
581.4334749940253
 21
35.16453811398049
 97
        1
330
C87
 75
     0
 76
     0
 52
45.0
 41
0.1
 77
     0
 78
     1
 53
45.0
 43
174.0
 44
-32.08885297207042
 45
-0.0707106781186548
 46
0.0707106781186548
 79
     0
 98
        1
 10
174.0
 20
-32.08885297207042
1001
PHOENIX7010
1002
{
1070
    41
1040
1.0
1002
}
  0
HATCH
  5
C45
102
{ACAD_REACTORS
330
C8C
102
}
330
1A
100
AcDbEntity
  8
0
  6
Continuous
 62
     1
370
    25
100
AcDbHatch
 10
0.0
 20
0.0
 30
0.0
210
0.0
220
0.0
230
1.0
  2
_U
 70
     0
 71
     1
 91
        1
 92
        0
 93
        3
 72
     1
 10
573.8834749940256
 20
27.36453811398042
 11
573.8834749940256
 21
31.51453811398039
 72
     1
 10
573.8834749940256
 20
31.51453811398039
 11
578.0334749940257
 21
31.51453811398039
 72
     2
 10
573.8834749940256
 20
31.51453811398039
 40
4.149999999999977
 50
0.0000000000001962
 51
270.0
 73
     1
 97
        1
330
C88
 75
     0
 76
     0
 52
45.0
 41
0.65
 77
     0
 78
     1
 53
45.0
 43
174.0
 44
-32.08885297207042
 45
-0.4596194077712559
 46
0.459619407771256
 79
     0
 98
        1
 10
174.0
 20
-32.08885297207042
1001
PHOENIX7010
1002
{
1070
    41
1040
1.0
1002
}
  0
LINE
  5
C46
102
{ACAD_REACTORS
330
C8C
102
}
330
1A
100
AcDbEntity
  8
0
  6
Continuous
 62
     7
370
    50
100
AcDbLine
 10
574.7334749940255
 20
27.36453811398042
 30
0.0
 11
586.7334749940255
 21
27.36453811398042
 31
0.0
1001
PHOENIX7010
1002
{
1070
    41
1040
1.0
1002
}
  0
LINE
  5
C47
102
{ACAD_REACTORS
330
C8C
102
}
330
1A
100
AcDbEntity
  8
0
  6
Continuous
 62
     7
370
    50
100
AcDbLine
 10
586.7334749940255
 20
27.36453811398042
 30
0.0
 11
586.7334749940255
 21
35.16453811398037
 31
0.0
1001
PHOENIX7010
1002
{
1070
    41
1040
1.0
1002
}
  0
LINE
  5
C48
102
{ACAD_REACTORS
330
C8C
102
}
330
1A
100
AcDbEntity
  8
0
  6
Continuous
 62
     7
370
    50
100
AcDbLine
 10
581.4334749940253
 20
28.26453811398039
 30
0.0
 11
581.4334749940253
 21
35.16453811398037
 31
0.0
1001
PHOENIX7010
1002
{
1070
    41
1040
1.0
1002
}
  0
LINE
  5
C49
102
{ACAD_REACTORS
330
C8C
102
}
330
1A
100
AcDbEntity
  8
0
  6
Continuous
 62
     7
370
    50
100
AcDbLine
 10
581.4334749940253
 20
35.16453811398037
 30
0.0
 11
574.7334749940255
 21
27.36453811398042
 31
0.0
1001
PHOENIX7010
1002
{
1070
    41
1040
1.0
1002
}
  0
LINE
  5
C4A
102
{ACAD_REACTORS
330
C8C
102
}
330
1A
100
AcDbEntity
  8
0
  6
Continuous
 62
     7
370
    50
100
AcDbLine
 10
586.7334749940255
 20
35.16453811398037
 30
0.0
 11
581.4334749940253
 21
28.26453811398039
 31
0.0
1001
PHOENIX7010
1002
{
1070
    41
1040
1.0
1002
}
  0
INSERT
  5
C4B
102
{ACAD_REACTORS
330
C8C
102
}
330
1A
100
AcDbEntity
  8
0
  6
Continuous
 62
     1
370
    25
100
AcDbBlockReference
  2
PH_GRPBLK
 10
574.7334749940255
 20
27.36453811398042
 30
0.0
1001
PHOENIX7010
1002
{
1070
    41
1040
1.0
1002
}
  0
MTEXT
  5
C4C
102
{ACAD_REACTORS
330
C8D
102
}
330
1A
100
AcDbEntity
  8
0
  6
Continuous
 62
     7
370
    50
100
AcDbMText
 10
555.0842366554657
 20
17.88346060003152
 30
0.0
 40
1.6
 41
0.0
 71
     7
 72
     5
  1
{\fArial|b0|i0|c0|p34;\W1.1;\C1;A Phoenix Mecano Company}
 73
     1
 44
1.0
1001
PHOENIX7010
1002
{
1070
    41
1040
1.0
1002
}
1001
ACAD
1000
MTEXTBEGIN
1070
    73
1070
     1
1070
    44
1040
1.0
1070
    74
1070
     0
1000
MTEXTEND
  0
MTEXT
  5
C4D
102
{ACAD_XDICTIONARY
360
FC0
102
}
102
{ACAD_REACTORS
330
C8D
102
}
330
1A
100
AcDbEntity
  8
0
  6
Continuous
 62
     7
370
    50
100
AcDbMText
 10
567.5658807175859
 20
21.46517927327739
 30
0.0
 40
3.7
 41
0.0
 71
     7
 72
     5
  1
{\fArial|b1|i0|c0|p34;\W1.1;BOPLA}
 73
     1
 44
1.135135135135135
1001
PHOENIX7010
1002
{
1070
    41
1040
1.0
1002
}
1001
ACAD
1000
MTEXTBEGIN
1070
    73
1070
     1
1070
    44
1040
1.135135135135135
1070
    74
1070
     0
1000
MTEXTEND
  0
INSERT
  5
C4E
102
{ACAD_REACTORS
330
C8D
102
}
330
1A
100
AcDbEntity
  8
0
  6
Continuous
 62
     7
370
    50
100
AcDbBlockReference
  2
PH_GRPBLK
 10
574.7334749940255
 20
27.36453811398042
 30
0.0
1001
PHOENIX7010
1002
{
1070
    41
1040
1.0
1002
}
  0
MTEXT
  5
C4F
102
{ACAD_REACTORS
330
C8E
102
}
330
1A
100
AcDbEntity
  8
0
  6
Continuous
 62
     5
370
    35
100
AcDbMText
 10
492.9304981780733
 20
52.18090043987126
 30
0.0
 40
3.5
 41
0.0
 71
     7
 72
     5
  1
{\C7;Katalogzeichnung/\Q20;Catalogue drawing}
 73
     1
 44
1.0
1001
PHOENIX7010
1002
{
1070
    41
1040
1.0
1002
}
1001
ACAD
1000
MTEXTBEGIN
1070
    73
1070
     1
1070
    44
1040
1.0
1070
    74
1070
     0
1000
MTEXTEND
  0
MTEXT
  5
C50
102
{ACAD_REACTORS
330
C8E
102
}
330
1A
100
AcDbEntity
  8
0
  6
Continuous
 62
     5
370
    35
100
AcDbMText
 10
492.9304981780733
 20
59.18090043987127
 30
0.0
 40
4.0
 41
0.0
 71
     7
 72
     5
  1
{\C7;BGT-Flansch 6HE FL 00600}
 73
     1
 44
1.0
1001
PHOENIX7010
1002
{
1070
    41
1040
1.0
1002
}
1001
ACAD
1000
MTEXTBEGIN
1070
    73
1070
     1
1070
    44
1040
1.0
1070
    74
1070
     0
1000
MTEXTEND
  0
MTEXT
  5
C51
102
{ACAD_REACTORS
330
C8E
102
}
330
1A
100
AcDbEntity
  8
0
  6
Continuous
 62
     5
370
    35
100
AcDbMText
 10
492.9304981780733
 20
66.18090043987127
 30
0.0
 40
4.0
 41
0.0
 71
     7
 72
     5
  1
{\C7;Interzoll}
 73
     1
 44
1.0
1001
PHOENIX7010
1002
{
1070
    41
1040
1.0
1002
}
1001
ACAD
1000
MTEXTBEGIN
1070
    73
1070
     1
1070
    44
1040
1.0
1070
    74
1070
     0
1000
MTEXTEND
  0
MTEXT
  5
C52
102
{ACAD_REACTORS
330
C8E
102
}
330
1A
100
AcDbEntity
  8
0
  6
Continuous
 62
     5
370
    35
100
AcDbMText
 10
514.3074630969176
 20
95.1987580068237
 30
0.0
 40
4.0
 41
0.0
 71
     7
 72
     5
  1
{\C7;1:1}
 73
     1
 44
1.0
1001
PHOENIX7010
1002
{
1070
    41
1040
1.0
1002
}
1001
ACAD
1000
MTEXTBEGIN
1070
    73
1070
     1
1070
    44
1040
1.0
1070
    74
1070
     0
1000
MTEXTEND
  0
MTEXT
  5
C53
102
{ACAD_REACTORS
330
C8E
102
}
330
1A
100
AcDbEntity
  8
0
  6
Continuous
 62
     5
370
    35
100
AcDbMText
 10
493.2942762589885
 20
94.24669079255114
 30
0.0
 40
2.5
 41
0.0
 71
     7
 72
     5
  1
{\C1;Maßstab/\P\Q20;Scale:}
 73
     1
 44
1.0
1001
PHOENIX7010
1002
{
1070
    41
1040
1.0
1002
}
1001
ACAD
1000
MTEXTBEGIN
1070
    73
1070
     1
1070
    44
1040
1.0
1070
    74
1070
     0
1000
MTEXTEND
  0
MTEXT
  5
C54
102
{ACAD_REACTORS
330
C8E
102
}
330
1A
100
AcDbEntity
  8
0
  6
Continuous
 62
     5
370
    35
100
AcDbMText
 10
493.5702130763932
 20
86.578461793006
 30
0.0
 40
3.0
 41
0.0
 71
     7
 72
     5
  1
Zeichnungs-Nr. / {\Q20;Drawing-No.:}
 73
     1
 44
1.0
1001
PHOENIX7010
1002
{
1070
    41
1040
1.0
1002
}
1001
ACAD
1000
MTEXTBEGIN
1070
    73
1070
     1
1070
    44
1040
1.0
1070
    74
1070
     0
1000
MTEXTEND
  0
MTEXT
  5
C55
102
{ACAD_REACTORS
330
C8E
102
}
330
1A
100
AcDbEntity
  8
0
  6
Continuous
 62
     5
370
    35
100
AcDbMText
 10
514.6810942169349
 20
80.43630467405568
 30
0.0
 40
4.0
 41
0.0
 71
     7
 72
     5
  1
{\C7;2G 5045.437.02}
 73
     1
 44
1.0
1001
PHOENIX7010
1002
{
1070
    41
1040
1.0
1002
}
1001
ACAD
1000
MTEXTBEGIN
1070
    73
1070
     1
1070
    44
1040
1.0
1070
    74
1070
     0
1000
MTEXTEND
  0
MTEXT
  5
C56
102
{ACAD_REACTORS
330
C8E
102
}
330
1A
100
AcDbEntity
  8
0
  6
Continuous
 62
     5
370
    35
100
AcDbMText
 10
492.8800602381663
 20
72.42896167163713
 30
0.0
 40
4.0
 41
0.0
 71
     7
 72
     5
  1
{\C7;Artikel / \Q20;Article:}
 73
     1
 44
1.0
1001
PHOENIX7010
1002
{
1070
    41
1040
1.0
1002
}
1001
ACAD
1000
MTEXTBEGIN
1070
    73
1070
     1
1070
    44
1040
1.0
1070
    74
1070
     0
1000
MTEXTEND
  0
MTEXT
  5
C57
102
{ACAD_REACTORS
330
C8E
102
}
330
1A
100
AcDbEntity
  8
0
  6
Continuous
 62
     5
370
    35
100
AcDbMText
 10
503.5918340418984
 20
15.32304279191089
 30
0.0
 40
2.0
 41
0.0
 71
     7
 72
     5
  1
{\C1;Datum/\P\Q20;Date:}
 73
     1
 44
1.0
1001
PHOENIX7010
1002
{
1070
    41
1040
1.0
1002
}
1001
ACAD
1000
MTEXTBEGIN
1070
    73
1070
     1
1070
    44
1040
1.0
1070
    74
1070
     0
1000
MTEXTEND
  0
MTEXT
  5
C58
102
{ACAD_REACTORS
330
C8E
102
}
330
1A
100
AcDbEntity
  8
0
  6
Continuous
 62
     5
370
    35
100
AcDbMText
 10
490.167758256943
 20
15.32303913053624
 30
0.0
 40
2.0
 41
0.0
 71
     7
 72
     5
  1
{\C1;Ä.Nr/\P\Q20;Alt-No.:}
 73
     1
 44
1.0
1001
PHOENIX7010
1002
{
1070
    41
1040
1.0
1002
}
1001
ACAD
1000
MTEXTBEGIN
1070
    73
1070
     1
1070
    44
1040
1.0
1070
    74
1070
     0
1000
MTEXTEND
  0
MTEXT
  5
C59
102
{ACAD_REACTORS
330
C8E
102
}
330
1A
100
AcDbEntity
  8
0
  6
Continuous
 62
     5
370
    35
100
AcDbMText
 10
516.2178658257171
 20
10.60592166613935
 30
0.0
 40
2.5
 41
0.0
 71
     7
 72
     5
  1
2 900 444
 73
     1
 44
1.0
1001
PHOENIX7010
1002
{
1070
    41
1040
1.0
1002
}
1001
ACAD
1000
MTEXTBEGIN
1070
    73
1070
     1
1070
    44
1040
1.0
1070
    74
1070
     0
1000
MTEXTEND
  0
MTEXT
  5
C5A
102
{ACAD_REACTORS
330
C8E
102
}
330
1A
100
AcDbEntity
  8
0
  6
Continuous
 62
     5
370
    35
100
AcDbMText
 10
490.5289912646938
 20
10.49475527098116
 30
0.0
 40
2.5
 41
0.0
 71
     7
 72
     5
  1
DISK:
 73
     1
 44
1.0
1001
PHOENIX7010
1002
{
1070
    41
1040
1.0
1002
}
1001
ACAD
1000
MTEXTBEGIN
1070
    73
1070
     1
1070
    44
1040
1.0
1070
    74
1070
     0
1000
MTEXTEND
  0
MTEXT
  5
C5B
102
{ACAD_REACTORS
330
C8E
102
}
330
1A
100
AcDbEntity
  8
0
  6
Continuous
 62
     5
370
    35
100
AcDbMText
 10
516.2178658257171
 20
6.248887523187704
 30
0.0
 40
2.5
 41
0.0
 71
     7
 72
     5
  1
23.05.89 SM
 73
     1
 44
1.0
1001
PHOENIX7010
1002
{
1070
    41
1040
1.0
1002
}
1001
ACAD
1000
MTEXTBEGIN
1070
    73
1070
     1
1070
    44
1040
1.0
1070
    74
1070
     0
1000
MTEXTEND
  0
MTEXT
  5
C5C
102
{ACAD_REACTORS
330
C8E
102
}
330
1A
100
AcDbEntity
  8
0
  6
Continuous
 62
     5
370
    35
100
AcDbMText
 10
490.5289912646938
 20
6.248887523187704
 30
0.0
 40
2.5
 41
0.0
 71
     7
 72
     5
  1
Datum/{\Q20;Date:}
 73
     1
 44
1.0
1001
PHOENIX7010
1002
{
1070
    41
1040
1.0
1002
}
1001
ACAD
1000
MTEXTBEGIN
1070
    73
1070
     1
1070
    44
1040
1.0
1070
    74
1070
     0
1000
MTEXTEND
  0
LINE
  5
C5D
102
{ACAD_REACTORS
330
C8E
102
}
330
1A
100
AcDbEntity
  8
0
  6
Continuous
 62
     5
370
    35
100
AcDbLine
 10
488.9999999999997
 20
14.50000000000023
 30
0.0
 11
589.0
 21
14.50000000000023
 31
0.0
1001
PHOENIX7010
1002
{
1070
    41
1040
1.0
1002
}
  0
LINE
  5
C5E
102
{ACAD_REACTORS
330
C8E
102
}
330
1A
100
AcDbEntity
  8
0
  6
Continuous
 62
     5
100
AcDbLine
 10
579.4999999999999
 20
92.50000000000012
 30
0.0
 11
579.4999999999999
 21
99.50000000000011
 31
0.0
1001
PHOENIX7010
1002
{
1070
    62
1070
     5
1070
    41
1040
1.0
1002
}
  0
LINE
  5
C5F
102
{ACAD_REACTORS
330
C8E
102
}
330
1A
100
AcDbEntity
  8
0
  6
ACAD_ISO04W100
 62
     1
 48
0.1451612903225806
100
AcDbLine
 10
584.4999999999999
 20
91.50000000000011
 30
0.0
 11
584.4999999999999
 21
100.5000000000001
 31
0.0
1001
PHOENIX7010
1002
{
1070
    62
1070
     1
1070
    41
1040
1.0
1002
}
  0
CIRCLE
  5
C60
102
{ACAD_REACTORS
330
C8E
102
}
330
1A
100
AcDbEntity
  8
0
  6
Continuous
 62
     5
100
AcDbCircle
 10
584.4999999999999
 20
96.00000000000012
 30
0.0
 40
1.75
1001
PHOENIX7010
1002
{
1070
    62
1070
     5
1070
    41
1040
1.0
1002
}
  0
CIRCLE
  5
C61
102
{ACAD_REACTORS
330
C8E
102
}
330
1A
100
AcDbEntity
  8
0
  6
Continuous
 62
     5
100
AcDbCircle
 10
584.4999999999999
 20
96.00000000000012
 30
0.0
 40
3.5
1001
PHOENIX7010
1002
{
1070
    62
1070
     5
1070
    41
1040
1.0
1002
}
  0
LINE
  5
C62
102
{ACAD_REACTORS
330
C8E
102
}
330
1A
100
AcDbEntity
  8
0
  6
Continuous
 62
     5
100
AcDbLine
 10
572.5
 20
94.25000000000011
 30
0.0
 11
572.5
 21
97.75000000000012
 31
0.0
1001
PHOENIX7010
1002
{
1070
    62
1070
     5
1070
    41
1040
1.0
1002
}
  0
LINE
  5
C63
102
{ACAD_REACTORS
330
C8E
102
}
330
1A
100
AcDbEntity
  8
0
  6
ACAD_ISO04W100
 62
     1
 48
0.282258064516129
100
AcDbLine
 10
589.0
 20
96.00000000000012
 30
0.0
 11
571.4999999999999
 21
96.00000000000012
 31
0.0
1001
PHOENIX7010
1002
{
1070
    62
1070
     1
1070
    41
1040
1.0
1002
}
  0
LINE
  5
C64
102
{ACAD_REACTORS
330
C8E
102
}
330
1A
100
AcDbEntity
  8
0
  6
Continuous
 62
     5
100
AcDbLine
 10
579.4999999999999
 20
92.50000000000012
 30
0.0
 11
572.5
 21
94.25000000000011
 31
0.0
1001
PHOENIX7010
1002
{
1070
    62
1070
     5
1070
    41
1040
1.0
1002
}
  0
LINE
  5
C65
102
{ACAD_REACTORS
330
C8E
102
}
330
1A
100
AcDbEntity
  8
0
  6
Continuous
 62
     5
100
AcDbLine
 10
579.4999999999999
 20
99.50000000000011
 30
0.0
 11
572.5
 21
97.75000000000012
 31
0.0
1001
PHOENIX7010
1002
{
1070
    62
1070
     5
1070
    41
1040
1.0
1002
}
  0
ARC
  5
C66
102
{ACAD_REACTORS
330
C8E
102
}
330
1A
100
AcDbEntity
  8
0
  6
Continuous
 62
     5
100
AcDbCircle
 10
491.4999999999998
 20
89.00000000000011
 30
0.0
 40
2.5
100
AcDbArc
 50
90.0
 51
180.0
1001
PHOENIX7010
1002
{
1070
    62
1070
     5
1070
    41
1040
1.0
1002
}
  0
ARC
  5
C67
102
{ACAD_REACTORS
330
C8E
102
}
330
1A
100
AcDbEntity
  8
0
  6
Continuous
 62
     5
100
AcDbCircle
 10
491.4999999999998
 20
100.0000000000001
 30
0.0
 40
2.5
100
AcDbArc
 50
90.0
 51
180.0
1001
PHOENIX7010
1002
{
1070
    62
1070
     5
1070
    41
1040
1.0
1002
}
  0
LINE
  5
C68
102
{ACAD_REACTORS
330
C8E
102
}
330
1A
100
AcDbEntity
  8
0
  6
Continuous
 62
     5
100
AcDbLine
 10
589.0
 20
91.50000000000011
 30
0.0
 11
491.4999999999998
 21
91.50000000000011
 31
0.0
1001
PHOENIX7010
1002
{
1070
    62
1070
     5
1070
    41
1040
1.0
1002
}
  0
LINE
  5
C69
102
{ACAD_REACTORS
330
C8E
102
}
330
1A
100
AcDbEntity
  8
0
  6
Continuous
 62
     5
100
AcDbLine
 10
589.0
 20
102.5000000000001
 30
0.0
 11
491.4999999999998
 21
102.5000000000001
 31
0.0
1001
PHOENIX7010
1002
{
1070
    62
1070
     5
1070
    41
1040
1.0
1002
}
  0
LINE
  5
C6A
102
{ACAD_REACTORS
330
C8E
102
}
330
1A
100
AcDbEntity
  8
0
  6
Continuous
 62
     5
100
AcDbLine
 10
524.0
 20
48.00000000000022
 30
0.0
 11
524.0
 21
14.50000000000023
 31
0.0
1001
PHOENIX7010
1002
{
1070
    62
1070
     5
1070
    41
1040
1.0
1002
}
  0
TEXT
  5
C6B
102
{ACAD_REACTORS
330
C8E
102
}
330
1A
100
AcDbEntity
  8
0
  6
Continuous
 62
     1
100
AcDbText
 10
502.9999996997321
 20
42.74999981501366
 30
0.0
 40
2.0
  1
-
 41
1.5
100
AcDbText
1001
PHOENIX7010
1002
{
1070
    62
1070
     1
1070
    41
1040
1.0
1002
}
  0
TEXT
  5
C6C
102
{ACAD_REACTORS
330
C8E
102
}
330
1A
100
AcDbEntity
  8
0
  6
Continuous
 62
     1
100
AcDbText
 10
502.9999996997321
 20
40.24999981501366
 30
0.0
 40
2.0
  1
-
 41
1.5
100
AcDbText
1001
PHOENIX7010
1002
{
1070
    62
1070
     1
1070
    41
1040
1.0
1002
}
  0
TEXT
  5
C6D
102
{ACAD_REACTORS
330
C8E
102
}
330
1A
100
AcDbEntity
  8
0
  6
Continuous
 62
     1
100
AcDbText
 10
502.9999996997321
 20
45.24999981501366
 30
0.0
 40
2.0
  1
-
 41
1.5
100
AcDbText
1001
PHOENIX7010
1002
{
1070
    62
1070
     1
1070
    41
1040
1.0
1002
}
  0
TEXT
  5
C6E
102
{ACAD_REACTORS
330
C8E
102
}
330
1A
100
AcDbEntity
  8
0
  6
Continuous
 62
     1
100
AcDbText
 10
489.9999996997324
 20
42.74999981501366
 30
0.0
 40
2.0
  1
-
 41
1.5
100
AcDbText
1001
PHOENIX7010
1002
{
1070
    62
1070
     1
1070
    41
1040
1.0
1002
}
  0
TEXT
  5
C6F
102
{ACAD_REACTORS
330
C8E
102
}
330
1A
100
AcDbEntity
  8
0
  6
Continuous
 62
     1
100
AcDbText
 10
489.9999996997324
 20
40.24999981501366
 30
0.0
 40
2.0
  1
-
 41
1.5
100
AcDbText
1001
PHOENIX7010
1002
{
1070
    62
1070
     1
1070
    41
1040
1.0
1002
}
  0
TEXT
  5
C70
102
{ACAD_REACTORS
330
C8E
102
}
330
1A
100
AcDbEntity
  8
0
  6
Continuous
 62
     1
100
AcDbText
 10
489.9999996997324
 20
45.24999981501366
 30
0.0
 40
2.0
  1
-
 41
1.5
100
AcDbText
1001
PHOENIX7010
1002
{
1070
    62
1070
     1
1070
    41
1040
1.0
1002
}
  0
ARC
  5
C71
102
{ACAD_REACTORS
330
C8E
102
}
330
1A
100
AcDbEntity
  8
0
  6
Continuous
 62
     5
100
AcDbCircle
 10
491.4999999999998
 20
45.50000000000022
 30
0.0
 40
2.5
100
AcDbArc
 50
90.0
 51
180.0
1001
PHOENIX7010
1002
{
1070
    62
1070
     5
1070
    41
1040
1.0
1002
}
  0
ARC
  5
C72
102
{ACAD_REACTORS
330
C8E
102
}
330
1A
100
AcDbEntity
  8
0
  6
Continuous
 62
     5
100
AcDbCircle
 10
491.4999999999998
 20
76.00000000000022
 30
0.0
 40
2.5
100
AcDbArc
 50
90.0
 51
180.0
1001
PHOENIX7010
1002
{
1070
    62
1070
     5
1070
    41
1040
1.0
1002
}
  0
TEXT
  5
C73
102
{ACAD_REACTORS
330
C8E
102
}
330
1A
100
AcDbEntity
  8
0
  6
Continuous
 62
     1
100
AcDbText
 10
502.9999996997321
 20
25.24999981501367
 30
0.0
 40
2.0
  1
-
 41
1.5
100
AcDbText
1001
PHOENIX7010
1002
{
1070
    62
1070
     1
1070
    41
1040
1.0
1002
}
  0
TEXT
  5
C74
102
{ACAD_REACTORS
330
C8E
102
}
330
1A
100
AcDbEntity
  8
0
  6
Continuous
 62
     1
100
AcDbText
 10
502.9999996997321
 20
22.74999981501367
 30
0.0
 40
2.0
  1
07.03.2014
 41
1.5
100
AcDbText
1001
PHOENIX7010
1002
{
1070
    62
1070
     1
1070
    41
1040
1.0
1002
}
  0
TEXT
  5
C75
102
{ACAD_REACTORS
330
C8E
102
}
330
1A
100
AcDbEntity
  8
0
  6
Continuous
 62
     1
100
AcDbText
 10
502.9999996997321
 20
30.24999981501367
 30
0.0
 40
2.0
  1
-
 41
1.5
100
AcDbText
1001
PHOENIX7010
1002
{
1070
    62
1070
     1
1070
    41
1040
1.0
1002
}
  0
TEXT
  5
C76
102
{ACAD_REACTORS
330
C8E
102
}
330
1A
100
AcDbEntity
  8
0
  6
Continuous
 62
     1
100
AcDbText
 10
502.9999996997321
 20
27.74999981501367
 30
0.0
 40
2.0
  1
-
 41
1.5
100
AcDbText
1001
PHOENIX7010
1002
{
1070
    62
1070
     1
1070
    41
1040
1.0
1002
}
  0
TEXT
  5
C77
102
{ACAD_REACTORS
330
C8E
102
}
330
1A
100
AcDbEntity
  8
0
  6
Continuous
 62
     1
100
AcDbText
 10
502.9999996997321
 20
32.74999981501367
 30
0.0
 40
2.0
  1
-
 41
1.5
100
AcDbText
1001
PHOENIX7010
1002
{
1070
    62
1070
     1
1070
    41
1040
1.0
1002
}
  0
TEXT
  5
C78
102
{ACAD_REACTORS
330
C8E
102
}
330
1A
100
AcDbEntity
  8
0
  6
Continuous
 62
     1
100
AcDbText
 10
502.9999996997321
 20
35.24999981501367
 30
0.0
 40
2.0
  1
-
 41
1.5
100
AcDbText
1001
PHOENIX7010
1002
{
1070
    62
1070
     1
1070
    41
1040
1.0
1002
}
  0
TEXT
  5
C79
102
{ACAD_REACTORS
330
C8E
102
}
330
1A
100
AcDbEntity
  8
0
  6
Continuous
 62
     1
100
AcDbText
 10
502.9999996997321
 20
37.74999981501367
 30
0.0
 40
2.0
  1
-
 41
1.5
100
AcDbText
1001
PHOENIX7010
1002
{
1070
    62
1070
     1
1070
    41
1040
1.0
1002
}
  0
TEXT
  5
C7A
102
{ACAD_REACTORS
330
C8E
102
}
330
1A
100
AcDbEntity
  8
0
  6
Continuous
 62
     1
100
AcDbText
 10
489.9999996997324
 20
25.24999981501367
 30
0.0
 40
2.0
  1
-
 41
1.5
100
AcDbText
1001
PHOENIX7010
1002
{
1070
    62
1070
     1
1070
    41
1040
1.0
1002
}
  0
TEXT
  5
C7B
102
{ACAD_REACTORS
330
C8E
102
}
330
1A
100
AcDbEntity
  8
0
  6
Continuous
 62
     1
100
AcDbText
 10
489.9999996997324
 20
22.74999981501367
 30
0.0
 40
2.0
  1
4086
 41
1.5
100
AcDbText
1001
PHOENIX7010
1002
{
1070
    62
1070
     1
1070
    41
1040
1.0
1002
}
  0
TEXT
  5
C7C
102
{ACAD_REACTORS
330
C8E
102
}
330
1A
100
AcDbEntity
  8
0
  6
Continuous
 62
     1
100
AcDbText
 10
489.9999996997324
 20
30.24999981501367
 30
0.0
 40
2.0
  1
-
 41
1.5
100
AcDbText
1001
PHOENIX7010
1002
{
1070
    62
1070
     1
1070
    41
1040
1.0
1002
}
  0
TEXT
  5
C7D
102
{ACAD_REACTORS
330
C8E
102
}
330
1A
100
AcDbEntity
  8
0
  6
Continuous
 62
     1
100
AcDbText
 10
489.9999996997324
 20
27.74999981501367
 30
0.0
 40
2.0
  1
-
 41
1.5
100
AcDbText
1001
PHOENIX7010
1002
{
1070
    62
1070
     1
1070
    41
1040
1.0
1002
}
  0
TEXT
  5
C7E
102
{ACAD_REACTORS
330
C8E
102
}
330
1A
100
AcDbEntity
  8
0
  6
Continuous
 62
     1
100
AcDbText
 10
489.9999996997324
 20
32.74999981501367
 30
0.0
 40
2.0
  1
-
 41
1.5
100
AcDbText
1001
PHOENIX7010
1002
{
1070
    62
1070
     1
1070
    41
1040
1.0
1002
}
  0
TEXT
  5
C7F
102
{ACAD_REACTORS
330
C8E
102
}
330
1A
100
AcDbEntity
  8
0
  6
Continuous
 62
     1
100
AcDbText
 10
489.9999996997324
 20
35.24999981501367
 30
0.0
 40
2.0
  1
-
 41
1.5
100
AcDbText
1001
PHOENIX7010
1002
{
1070
    62
1070
     1
1070
    41
1040
1.0
1002
}
  0
TEXT
  5
C80
102
{ACAD_REACTORS
330
C8E
102
}
330
1A
100
AcDbEntity
  8
0
  6
Continuous
 62
     1
100
AcDbText
 10
489.9999996997324
 20
37.74999981501367
 30
0.0
 40
2.0
  1
-
 41
1.5
100
AcDbText
1001
PHOENIX7010
1002
{
1070
    62
1070
     1
1070
    41
1040
1.0
1002
}
  0
LINE
  5
C81
102
{ACAD_REACTORS
330
C8E
102
}
330
1A
100
AcDbEntity
  8
0
  6
Continuous
 62
     1
100
AcDbLine
 10
502.0
 20
48.00000000000022
 30
0.0
 11
502.0
 21
14.50000000000023
 31
0.0
1001
PHOENIX7010
1002
{
1070
    62
1070
     1
1070
    41
1040
1.0
1002
}
  0
LINE
  5
C82
102
{ACAD_REACTORS
330
C8E
102
}
330
1A
100
AcDbEntity
  8
0
  6
Continuous
 62
     1
100
AcDbLine
 10
488.9999999999997
 20
21.50000000000023
 30
0.0
 11
524.0
 21
21.50000000000023
 31
0.0
1001
PHOENIX7010
1002
{
1070
    62
1070
     1
1070
    41
1040
1.0
1002
}
  0
LINE
  5
C83
102
{ACAD_REACTORS
330
C8E
102
}
330
1A
100
AcDbEntity
  8
0
  6
Continuous
 62
     5
100
AcDbLine
 10
589.0
 20
78.50000000000022
 30
0.0
 11
491.4999999999998
 21
78.50000000000022
 31
0.0
1001
PHOENIX7010
1002
{
1070
    62
1070
     5
1070
    41
1040
1.0
1002
}
  0
LINE
  5
C84
102
{ACAD_REACTORS
330
C8E
102
}
330
1A
100
AcDbEntity
  8
0
  6
Continuous
 62
     5
100
AcDbLine
 10
589.0
 20
48.00000000000022
 30
0.0
 11
491.4999999999998
 21
48.00000000000022
 31
0.0
1001
PHOENIX7010
1002
{
1070
    62
1070
     5
1070
    41
1040
1.0
1002
}
  0
LINE
  5
C85
102
{ACAD_REACTORS
330
C8E
102
}
330
1A
100
AcDbEntity
  8
0
  6
Continuous
 62
     5
100
AcDbLine
 10
488.9999999999997
 20
100.0000000000001
 30
0.0
 11
488.9999999999997
 21
5.000000000000227
 31
0.0
1001
PHOENIX7010
1002
{
1070
    62
1070
     5
1070
    41
1040
1.0
1002
}
  0
INSERT
  5
C86
102
{ACAD_REACTORS
330
C8E
102
}
330
1A
100
AcDbEntity
  8
0
  6
Continuous
 62
     5
370
    35
100
AcDbBlockReference
  2
PH_GRPBLK
 10
488.9999999999997
 20
14.50000000000023
 30
0.0
1001
PHOENIX7010
1002
{
1070
    41
1040
1.0
1002
}
  0
LWPOLYLINE
  5
C87
102
{ACAD_REACTORS
330
C44
102
}
330
1A
100
AcDbEntity
  8
0
  6
Continuous
 62
     7
 60
     1
370
    50
100
AcDbPolyline
 90
        5
 70
     1
 43
0.0
 10
581.4334749940253
 20
35.16453811398049
 10
574.7334749940255
 20
27.36453811398042
 10
586.7334749940255
 20
27.36453811398042
 10
586.7334749940255
 20
35.16453811398037
 10
581.4334749940253
 20
28.26453811398051
1001
PHOENIX7010
1002
{
1070
    41
1040
1.0
1002
}
  0
LWPOLYLINE
  5
C88
102
{ACAD_REACTORS
330
C45
102
}
330
1A
100
AcDbEntity
  8
0
  6
Continuous
 62
     7
 60
     1
370
    50
100
AcDbPolyline
 90
        3
 70
     1
 43
0.0
 10
573.8834749940256
 20
27.36453811398042
 10
573.8834749940256
 20
31.51453811398039
 10
578.0334749940257
 20
31.51453811398039
 42
2.414213562373094
1001
PHOENIX7010
1002
{
1070
    41
1040
1.0
1002
}
  0
PDFUNDERLAY
  5
F88
330
1A
100
AcDbEntity
  8
0
  6
ACAD_ISO05W100
 62
     7
 92
        8
310
0800000000000000
100
AcDbUnderlayReference
340
F87
 10
435.0637185812185
 20
236.0742203735195
 30
0.0
 41
20.0
 42
20.0
 43
20.0
281
   100
282
     0
  0
ENDSEC
  0
SECTION
  2
OBJECTS
  0
DICTIONARY
  5
C
330
0
100
AcDbDictionary
281
     1
  3
ACAD_COLOR
350
B60
  3
ACAD_GROUP
350
D
  3
ACAD_LAYOUT
350
B87
  3
ACAD_MATERIAL
350
B33
  3
ACAD_MLEADERSTYLE
350
B85
  3
ACAD_MLINESTYLE
350
E
  3
ACAD_PDFDEFINITIONS
350
CE2
  3
ACAD_PLOTSETTINGS
350
B88
  3
ACAD_PLOTSTYLENAME
350
B31
  3
ACAD_SCALELIST
350
B63
  3
ACAD_TABLESTYLE
350
B61
  3
ACAD_VISUALSTYLE
350
B4C
  3
ACASAPPOBJECT
350
D4
  3
ACASGREF_MASTER
350
84
  3
ACCELVIEW
350
DA
  3
ACDB_RECOMPOSE_DATA
350
FC2
  3
AcDbVariableDictionary
350
D6E
  3
ACDMSYSVARMGR
350
A0
  3
ACGREF_MASTER
350
82
  3
ACME_COMMAND_HISTORY
350
80
  3
ACME_SCOPE_NAME
350
7F
  3
AD_APPL
350
93
  3
AD_DRAWMGR_NAME
350
B4
  3
AD_GREF_MODULE
350
9B
  3
AD_HOLENOTE_REPOSITORY
350
9A
  3
ADSYSVARMGR
350
89
  3
AMI_MASTER
350
83
  3
AUTOCAD_ASSEMBLIES_PROJECT
350
C0
  3
DESIGNER_ASSEMBLIES_SYSVARS
350
BB
  3
DWGPROPS
350
FC3
  3
PH_OBJREACTOR_DICT
350
3C
  3
PH_ROOTGROUP_DICT
350
3B
  3
PH_VARS
350
31
  0
DICTIONARY
  5
D39
330
8
100
AcDbDictionary
280
     1
281
     1
  0
DICTIONARY
  5
C42
330
2
100
AcDbDictionary
280
     1
281
     1
  3
ACAD_LAYERSTATES
360
C43
  0
DICTIONARY
  5
BB6
330
F
100
AcDbDictionary
280
     1
281
     1
  3
ADSK_XREC_LAYER_RECONCILED
360
BB7
  0
DICTIONARY
  5
BB8
330
44
100
AcDbDictionary
280
     1
281
     1
  3
ADSK_XREC_LAYER_RECONCILED
360
BB9
  0
DICTIONARY
  5
BBA
330
48
100
AcDbDictionary
280
     1
281
     1
  3
ADSK_XREC_LAYER_RECONCILED
360
BBB
  0
DICTIONARY
  5
BBC
330
4A
100
AcDbDictionary
280
     1
281
     1
  3
ADSK_XREC_LAYER_RECONCILED
360
BBD
  0
DICTIONARY
  5
BBE
330
B6
100
AcDbDictionary
280
     1
281
     1
  3
ADSK_XREC_LAYER_RECONCILED
360
BBF
  0
DICTIONARY
  5
BC0
330
B7
100
AcDbDictionary
280
     1
281
     1
  3
ADSK_XREC_LAYER_RECONCILED
360
BC1
  0
DICTIONARY
  5
BC2
330
B8
100
AcDbDictionary
280
     1
281
     1
  3
ADSK_XREC_LAYER_RECONCILED
360
BC3
  0
DICTIONARY
  5
BC4
330
B9
100
AcDbDictionary
280
     1
281
     1
  3
ADSK_XREC_LAYER_RECONCILED
360
BC5
  0
DICTIONARY
  5
BC6
330
BA
100
AcDbDictionary
280
     1
281
     1
  3
ADSK_XREC_LAYER_RECONCILED
360
BC7
  0
DICTIONARY
  5
BC8
330
CB
100
AcDbDictionary
280
     1
281
     1
  3
ADSK_XREC_LAYER_RECONCILED
360
BC9
  0
DICTIONARY
  5
BCA
330
CC
100
AcDbDictionary
280
     1
281
     1
  3
ADSK_XREC_LAYER_RECONCILED
360
BCB
  0
DICTIONARY
  5
BCC
330
CD
100
AcDbDictionary
280
     1
281
     1
  3
ADSK_XREC_LAYER_RECONCILED
360
BCD
  0
DICTIONARY
  5
BCE
330
68B
100
AcDbDictionary
280
     1
281
     1
  3
ADSK_XREC_LAYER_RECONCILED
360
BCF
  0
DICTIONARY
  5
BD0
330
68F
100
AcDbDictionary
280
     1
281
     1
  3
ADSK_XREC_LAYER_RECONCILED
360
BD1
  0
DICTIONARY
  5
BD2
330
6A1
100
AcDbDictionary
280
     1
281
     1
  3
ADSK_XREC_LAYER_RECONCILED
360
BD3
  0
DICTIONARY
  5
FC0
330
C4D
100
AcDbDictionary
280
     1
281
     1
  3
ACAD_MTEXT_2008_RT
360
FC1
  0
DICTIONARY
  5
B60
102
{ACAD_REACTORS
330
C
102
}
330
C
100
AcDbDictionary
281
     1
  0
DICTIONARY
  5
D
102
{ACAD_REACTORS
330
C
102
}
330
C
100
AcDbDictionary
281
     1
  3
PH_BOUNDARYLIST
350
3D
  0
DICTIONARY
  5
B87
102
{ACAD_REACTORS
330
C
102
}
330
C
100
AcDbDictionary
281
     1
  3
Layout1
350
B8A
  3
Model
350
B89
  0
DICTIONARY
  5
B33
102
{ACAD_REACTORS
330
C
102
}
330
C
100
AcDbDictionary
281
     1
  3
ByBlock
350
B3C
  3
ByLayer
350
B34
  3
Global
350
B44
  0
DICTIONARY
  5
B85
102
{ACAD_REACTORS
330
C
102
}
330
C
100
AcDbDictionary
281
     1
  3
Standard
350
B86
  0
DICTIONARY
  5
E
102
{ACAD_REACTORS
330
C
102
}
330
C
100
AcDbDictionary
281
     1
  3
STANDARD
350
13
  0
DICTIONARY
  5
CE2
102
{ACAD_REACTORS
330
C
102
}
330
C
100
AcDbDictionary
281
     1
  3
2900444 - 1
350
F87
  3
2900444-FL-IZ-Flansche 6HE - 1
350
CE4
  3
2900444_FL-IZ-Flansch 6HE - 1
350
DB8
  0
DICTIONARY
  5
B88
102
{ACAD_REACTORS
330
C
102
}
330
C
100
AcDbDictionary
281
     1
  0
ACDBDICTIONARYWDFLT
  5
B31
102
{ACAD_REACTORS
330
C
102
}
330
C
100
AcDbDictionary
281
     1
  3
Normal
350
B32
100
AcDbDictionaryWithDefault
340
B32
  0
DICTIONARY
  5
B63
102
{ACAD_REACTORS
330
C
102
}
330
C
100
AcDbDictionary
281
     1
  3
A0
350
B64
  3
A1
350
B65
  3
A2
350
B66
  3
A3
350
B67
  3
A4
350
B68
  3
A5
350
B69
  3
A6
350
B6A
  3
A7
350
B6B
  3
A8
350
B6C
  3
A9
350
B6D
  3
B0
350
B6E
  3
B1
350
B6F
  3
B2
350
B70
  3
B3
350
B71
  3
B4
350
B72
  3
B5
350
B73
  3
B6
350
B74
  3
B7
350
B75
  3
B8
350
B76
  3
B9
350
B77
  3
C0
350
B78
  3
C1
350
B79
  3
C2
350
B7A
  3
C3
350
B7B
  3
C4
350
B7C
  3
C5
350
B7D
  3
C6
350
B7E
  3
C7
350
B7F
  3
C8
350
B80
  3
C9
350
B81
  3
D0
350
B82
  3
D1
350
B83
  3
D2
350
B84
  0
DICTIONARY
  5
B61
102
{ACAD_REACTORS
330
C
102
}
330
C
100
AcDbDictionary
281
     1
  3
Standard
350
B62
  0
DICTIONARY
  5
B4C
102
{ACAD_REACTORS
330
C
102
}
330
C
100
AcDbDictionary
281
     1
  3
2dWireframe
350
B52
  3
3D Hidden
350
B54
  3
3dWireframe
350
B53
  3
Basic
350
B51
  3
Brighten
350
B58
  3
ColorChange
350
B5C
  3
Conceptual
350
B55
  3
Dim
350
B57
  3
EdgeColorOff
350
B5F
  3
Facepattern
350
B5B
  3
Flat
350
B4D
  3
FlatWithEdges
350
B4E
  3
Gouraud
350
B4F
  3
GouraudWithEdges
350
B50
  3
JitterOff
350
B5D
  3
Linepattern
350
B5A
  3
OverhangOff
350
B5E
  3
Realistic
350
B56
  3
Thicken
350
B59
  0
ACAD_PROXY_OBJECT
  5
D4
102
{ACAD_REACTORS
330
C
102
}
330
C
100
AcDbProxyObject
 90
      499
 91
      540
 95
   393235
 70
     0
 93
        2
310
BF
360
D2
 94
        0
1001
ACAD
1000
AcRTDxfName
1000
ASAPP
1000
AcRTDxfName
1000
ASAPP
1000
AcRTDxfName
1000
ASAPP
1000
AcRTDxfName
1000
ASAPP
1000
AcRTDxfName
1000
ASAPP
1000
AcRTDxfName
1000
ASAPP
  0
ACAD_PROXY_OBJECT
  5
84
102
{ACAD_REACTORS
330
C
102
}
330
C
100
AcDbProxyObject
 90
      499
 91
      506
 95
   393235
 70
     0
 93
       34
310
010000407F
 94
        0
1001
ACAD
1000
AcRTDxfName
1000
ACASGREFMASTER
1000
AcRTDxfName
1000
ACASGREFMASTER
1000
AcRTDxfName
1000
ACASGREFMASTER
1000
AcRTDxfName
1000
ACASGREFMASTER
1000
AcRTDxfName
1000
ACASGREFMASTER
1000
AcRTDxfName
1000
ACASGREFMASTER
  0
ACAD_PROXY_OBJECT
  5
DA
102
{ACAD_REACTORS
330
C
102
}
330
C
100
AcDbProxyObject
 90
      499
 91
      541
 95
   393235
 70
     0
 93
       12
310
901F
330
0
 94
        0
1001
ACAD
1000
AcRTDxfName
1000
AGDICTIONARY
1000
AcRTDxfName
1000
AGDICTIONARY
1000
AcRTDxfName
1000
AGDICTIONARY
1000
AcRTDxfName
1000
AGDICTIONARY
1000
AcRTDxfName
1000
AGDICTIONARY
1000
AcRTDxfName
1000
AGDICTIONARY
  0
XRECORD
  5
FC2
102
{ACAD_REACTORS
330
C
102
}
330
C
100
AcDbXrecord
280
     1
 90
        1
330
B62
330
C4D
  0
DICTIONARY
  5
D6E
102
{ACAD_REACTORS
330
C
102
}
330
C
100
AcDbDictionary
281
     1
  3
CANNOSCALE
350
D71
  3
CMLEADERSTYLE
350
D70
  3
CTABLESTYLE
350
D6F
  3
DIMASSOC
350
D74
  3
INDEXCTL
350
D73
  3
SORTENTS
350
D72
  3
XCLIPFRAME
350
FBE
  0
ACAD_PROXY_OBJECT
  5
A0
102
{ACAD_REACTORS
330
C
102
}
330
C
100
AcDbProxyObject
 90
      499
 91
      511
 95
   393235
 70
     0
 93
      184
310
4C5124810100000000000000000000000000000000000000
330
A1
330
A2
330
A3
330
A4
330
A5
330
A6
330
A7
330
A9
330
AA
330
AB
330
AC
330
AD
330
AE
330
AF
330
B0
330
B1
330
B2
330
B3
 94
        0
1001
ACAD
1000
AcRTDxfName
1000
"IM_SYSVAR_MAN"
1000
AcRTDxfName
1000
"IM_SYSVAR_MAN"
1000
AcRTDxfName
1000
"IM_SYSVAR_MAN"
1000
AcRTDxfName
1000
"IM_SYSVAR_MAN"
1000
AcRTDxfName
1000
"IM_SYSVAR_MAN"
1000
AcRTDxfName
1000
"IM_SYSVAR_MAN"
  0
ACAD_PROXY_OBJECT
  5
82
102
{ACAD_REACTORS
330
C
102
}
330
C
100
AcDbProxyObject
 90
      499
 91
      504
 95
   393235
 70
     0
 93
      114
310
01010041000000000000000000003F
 94
        0
1001
ACAD
1000
AcRTDxfName
1000
ACGREFMASTER
1000
AcRTDxfName
1000
ACGREFMASTER
1000
AcRTDxfName
1000
ACGREFMASTER
1000
AcRTDxfName
1000
ACGREFMASTER
1000
AcRTDxfName
1000
ACGREFMASTER
1000
AcRTDxfName
1000
ACGREFMASTER
  0
ACAD_PROXY_OBJECT
  5
80
102
{ACAD_REACTORS
330
C
102
}
330
C
100
AcDbProxyObject
 90
      499
 91
      502
 95
   393235
 70
     0
 93
     1726
310
4280508554E444546494E4580508554E444546494E458050C41445F434F4E56455254523140805084E202D20554E444F014213880B4815539113C050C414D4C54595045434845434B41405084E202D20554E444F014313880B481312539155165411405094E202D204C41594552014313880B481312539155165411405084E
310
202D20554E444F01431053531516541150D21150D2D03014213880B4815539113C05094E202D204C41594552014213880B4815539113C0504554E444F80504554E444F80504554E444F80504554E444F80506534156454153B
 94
        0
1001
ACAD
1000
AcRTDxfName
1000
ACMECOMMANDHISTORY
1000
AcRTDxfName
1000
ACMECOMMANDHISTORY
1000
AcRTDxfName
1000
ACMECOMMANDHISTORY
1000
AcRTDxfName
1000
ACMECOMMANDHISTORY
1000
AcRTDxfName
1000
ACMECOMMANDHISTORY
1000
AcRTDxfName
1000
ACMECOMMANDHISTORY
  0
ACAD_PROXY_OBJECT
  5
7F
102
{ACAD_REACTORS
330
C
102
}
330
C
100
AcDbProxyObject
 90
      499
 91
      501
 95
   393235
 70
     0
 93
      464
310
0101004093200000000000000000000000000000000000000000000000000000000000000000000000000000000000000000000000000009010050
360
85
360
86
360
87
360
88
360
8A
360
8B
360
8C
360
8D
360
8E
360
8F
360
90
360
91
360
92
360
95
360
96
360
97
360
98
360
99
360
9C
360
9D
360
9E
360
9F
360
A1
360
A2
360
A3
360
A4
360
A5
360
A6
360
A7
360
A9
360
AA
360
AB
360
AC
360
AD
360
AE
360
AF
360
B0
360
B1
360
B2
360
B3
360
BC
360
BD
360
BE
360
BF
360
C6
360
C7
360
C8
360
C9
360
CA
360
CE
330
0
 94
        0
1001
ACAD
1000
AcRTDxfName
1000
ACMESCOPE
1000
AcRTDxfName
1000
ACMESCOPE
1000
AcRTDxfName
1000
ACMESCOPE
1000
AcRTDxfName
1000
ACMESCOPE
1000
AcRTDxfName
1000
ACMESCOPE
1000
AcRTDxfName
1000
ACMESCOPE
  0
ACAD_PROXY_OBJECT
  5
93
102
{ACAD_REACTORS
330
C
102
}
330
C
100
AcDbProxyObject
 90
      499
 91
      515
 95
   393235
 70
     0
 93
       42
310
00010200453F
330
85
 94
        0
1001
ACAD
1000
AcRTDxfName
1000
NAMEDAPPL
1000
AcRTDxfName
1000
NAMEDAPPL
1000
AcRTDxfName
1000
NAMEDAPPL
1000
AcRTDxfName
1000
NAMEDAPPL
1000
AcRTDxfName
1000
NAMEDAPPL
1000
AcRTDxfName
1000
NAMEDAPPL
  0
ACAD_PROXY_OBJECT
  5
B4
102
{ACAD_REACTORS
330
C
102
}
330
C
100
AcDbProxyObject
 90
      499
 91
      527
 95
   393235
 70
     0
 93
       42
310
00010000453F
330
9C
 94
        0
1001
ACAD
1000
AcRTDxfName
1000
AM_DWGMGR_NAME
1000
AcRTDxfName
1000
AM_DWGMGR_NAME
1000
AcRTDxfName
1000
AM_DWGMGR_NAME
1000
AcRTDxfName
1000
AM_DWGMGR_NAME
1000
AcRTDxfName
1000
AM_DWGMGR_NAME
1000
AcRTDxfName
1000
AM_DWGMGR_NAME
  0
ACAD_PROXY_OBJECT
  5
9B
102
{ACAD_REACTORS
330
C
102
}
330
C
100
AcDbProxyObject
 90
      499
 91
      522
 95
   393235
 70
     0
 93
      114
310
00000042800000000000000000003F
 94
        0
1001
ACAD
1000
AcRTDxfName
1000
AcAdGrefModule
1000
AcRTDxfName
1000
AcAdGrefModule
1000
AcRTDxfName
1000
AcAdGrefModule
1000
AcRTDxfName
1000
AcAdGrefModule
1000
AcRTDxfName
1000
AcAdGrefModule
1000
AcRTDxfName
1000
AcAdGrefModule
  0
ACAD_PROXY_OBJECT
  5
9A
102
{ACAD_REACTORS
330
C
102
}
330
C
100
AcDbProxyObject
 90
      499
 91
      521
 95
   393235
 70
     0
 93
        8
310
0000
330
99
 94
        0
1001
ACAD
1000
AcRTDxfName
1000
AM_HNTEMPLATE_MGR_NAME
1000
AcRTDxfName
1000
AM_HNTEMPLATE_MGR_NAME
1000
AcRTDxfName
1000
AM_HNTEMPLATE_MGR_NAME
1000
AcRTDxfName
1000
AM_HNTEMPLATE_MGR_NAME
1000
AcRTDxfName
1000
AM_HNTEMPLATE_MGR_NAME
1000
AcRTDxfName
1000
AM_HNTEMPLATE_MGR_NAME
  0
ACAD_PROXY_OBJECT
  5
89
102
{ACAD_REACTORS
330
C
102
}
330
C
100
AcDbProxyObject
 90
      499
 91
      511
 95
   393235
 70
     0
 93
      104
310
9094410100000000000000000000
330
8A
330
8B
330
8C
330
8D
330
8E
330
8F
330
90
330
91
330
92
 94
        0
1001
ACAD
1000
AcRTDxfName
1000
"IM_SYSVAR_MAN"
1000
AcRTDxfName
1000
"IM_SYSVAR_MAN"
1000
AcRTDxfName
1000
"IM_SYSVAR_MAN"
1000
AcRTDxfName
1000
"IM_SYSVAR_MAN"
1000
AcRTDxfName
1000
"IM_SYSVAR_MAN"
1000
AcRTDxfName
1000
"IM_SYSVAR_MAN"
  0
ACAD_PROXY_OBJECT
  5
83
102
{ACAD_REACTORS
330
C
102
}
330
C
100
AcDbProxyObject
 90
      499
 91
      505
 95
   393235
 70
     0
 93
       34
310
010000407F
 94
        0
1001
ACAD
1000
AcRTDxfName
1000
AmiMaster
1000
AcRTDxfName
1000
AmiMaster
1000
AcRTDxfName
1000
AmiMaster
1000
AcRTDxfName
1000
AmiMaster
1000
AcRTDxfName
1000
AmiMaster
1000
AcRTDxfName
1000
AmiMaster
  0
ACAD_PROXY_OBJECT
  5
C0
102
{ACAD_REACTORS
330
C
102
}
330
C
100
AcDbProxyObject
 90
      499
 91
      528
 95
   393235
 70
     0
 93
       58
310
010200420000003F
330
C8
330
CE
330
C9
 94
        0
1001
ACAD
1000
AcRTDxfName
1000
ACAMPROJECT
1000
AcRTDxfName
1000
ACAMPROJECT
1000
AcRTDxfName
1000
ACAMPROJECT
1000
AcRTDxfName
1000
ACAMPROJECT
1000
AcRTDxfName
1000
ACAMPROJECT
1000
AcRTDxfName
1000
ACAMPROJECT
  0
ACAD_PROXY_OBJECT
  5
BB
102
{ACAD_REACTORS
330
C
102
}
330
C
100
AcDbProxyObject
 90
      499
 91
      511
 95
   393235
 70
     0
 93
       64
310
904441010000000022
330
BC
330
BD
330
BE
330
BF
 94
        0
1001
ACAD
1000
AcRTDxfName
1000
"IM_SYSVAR_MAN"
1000
AcRTDxfName
1000
"IM_SYSVAR_MAN"
1000
AcRTDxfName
1000
"IM_SYSVAR_MAN"
1000
AcRTDxfName
1000
"IM_SYSVAR_MAN"
1000
AcRTDxfName
1000
"IM_SYSVAR_MAN"
1000
AcRTDxfName
1000
"IM_SYSVAR_MAN"
  0
XRECORD
  5
FC3
102
{ACAD_REACTORS
330
C
102
}
330
C
100
AcDbXrecord
280
     1
  1
DWGPROPS COOKIE
  2

  3

  4

  6

  7

  8
nowak
  9

300
=
301
=
302
=
303
=
304
=
305
=
306
=
307
=
308
=
309
=
 40
0.0496989699074074
 41
2450973.592842477
 42
2456783.544166782
  1

 90
        0
  0
DICTIONARY
  5
3C
102
{ACAD_REACTORS
330
C
102
}
330
C
100
AcDbDictionary
281
     1
  0
DICTIONARY
  5
3B
102
{ACAD_REACTORS
330
C
102
}
330
C
100
AcDbDictionary
281
     1
  3
$PH$AAAD
350
6BC
  3
$PH$AAAE
350
6CC
  3
$PH$AAAF
350
6D7
  3
$PH$AAAG
350
6E2
  3
$PH$AAAH
350
6E9
  3
$PH$AAAI
350
6F8
  3
$PH$AAAJ
350
702
  3
$PH$AAAK
350
70A
  3
$PH$AAAL
350
714
  3
$PH$AAAM
350
71E
  3
$PH$AAAN
350
72A
  3
$PH$AAAO
350
736
  3
$PH$AAAP
350
742
  3
$PH$AAAQ
350
74D
  3
$PH$AAAR
350
757
  3
$PH$AAAS
350
761
  3
$PH$AAAT
350
76B
  3
$PH$AAAU
350
777
  3
$PH$AAAV
350
783
  3
$PH$AAAW
350
78F
  3
$PH$AAAX
350
79B
  3
$PH$AAAY
350
7A5
  3
$PH$AAAZ
350
7AF
  3
$PH$AABA
350
7EC
  3
$PH$AABB
350
806
  3
$PH$AABM2H
350
C3F
  3
$PH$AABNCandP
350
C89
  0
PH_VARS
  5
31
102
{ACAD_REACTORS
330
C
102
}
330
C
  0
DICTIONARY
  5
C43
102
{ACAD_REACTORS
330
C42
102
}
330
C42
100
AcDbDictionary
281
     1
  0
XRECORD
  5
BB7
102
{ACAD_REACTORS
330
BB6
102
}
330
BB6
100
AcDbXrecord
280
     1
290
     1
  0
XRECORD
  5
BB9
102
{ACAD_REACTORS
330
BB8
102
}
330
BB8
100
AcDbXrecord
280
     1
290
     1
  0
XRECORD
  5
BBB
102
{ACAD_REACTORS
330
BBA
102
}
330
BBA
100
AcDbXrecord
280
     1
290
     1
  0
XRECORD
  5
BBD
102
{ACAD_REACTORS
330
BBC
102
}
330
BBC
100
AcDbXrecord
280
     1
290
     1
  0
XRECORD
  5
BBF
102
{ACAD_REACTORS
330
BBE
102
}
330
BBE
100
AcDbXrecord
280
     1
290
     1
  0
XRECORD
  5
BC1
102
{ACAD_REACTORS
330
BC0
102
}
330
BC0
100
AcDbXrecord
280
     1
290
     1
  0
XRECORD
  5
BC3
102
{ACAD_REACTORS
330
BC2
102
}
330
BC2
100
AcDbXrecord
280
     1
290
     1
  0
XRECORD
  5
BC5
102
{ACAD_REACTORS
330
BC4
102
}
330
BC4
100
AcDbXrecord
280
     1
290
     1
  0
XRECORD
  5
BC7
102
{ACAD_REACTORS
330
BC6
102
}
330
BC6
100
AcDbXrecord
280
     1
290
     1
  0
XRECORD
  5
BC9
102
{ACAD_REACTORS
330
BC8
102
}
330
BC8
100
AcDbXrecord
280
     1
290
     1
  0
XRECORD
  5
BCB
102
{ACAD_REACTORS
330
BCA
102
}
330
BCA
100
AcDbXrecord
280
     1
290
     1
  0
XRECORD
  5
BCD
102
{ACAD_REACTORS
330
BCC
102
}
330
BCC
100
AcDbXrecord
280
     1
290
     1
  0
XRECORD
  5
BCF
102
{ACAD_REACTORS
330
BCE
102
}
330
BCE
100
AcDbXrecord
280
     1
290
     1
  0
XRECORD
  5
BD1
102
{ACAD_REACTORS
330
BD0
102
}
330
BD0
100
AcDbXrecord
280
     1
290
     1
  0
XRECORD
  5
BD3
102
{ACAD_REACTORS
330
BD2
102
}
330
BD2
100
AcDbXrecord
280
     1
290
     1
  0
XRECORD
  5
FC1
102
{ACAD_REACTORS
330
FC0
102
}
330
FC0
100
AcDbXrecord
280
     1
 40
46997.0
  1
\pxql;{\fArial|b1|i0|c0|p34;\W1.1;BOPLA}
  0
GROUP
  5
3D
102
{ACAD_REACTORS
330
D
102
}
330
D
100
AcDbGroup
300

 70
     0
 71
     0
  0
LAYOUT
  5
B8A
102
{ACAD_XDICTIONARY
360
FF0
102
}
102
{ACAD_REACTORS
330
B87
102
}
330
B87
100
AcDbPlotSettings
  1

  2
RICOH Aficio MP W2400 RPCS
  4

  6

 40
0.0
 41
0.0
 42
0.0
 43
0.0
 44
0.0
 45
0.0
 46
0.0
 47
0.0
 48
0.0
 49
0.0
140
0.0
141
0.0
142
1.0
143
1.0
 70
   688
 72
     0
 73
     0
 74
     5
  7
HP_Farbe_Dünn.ctb
 75
    16
147
1.0
148
0.0
149
0.0
100
AcDbLayout
  1
Layout1
 70
     1
 71
     1
 10
0.0
 20
0.0
 11
420.0
 21
297.0
 12
0.0
 22
0.0
 32
0.0
 14
1.000000000000000E+20
 24
1.000000000000000E+20
 34
1.000000000000000E+20
 15
-1.000000000000000E+20
 25
-1.000000000000000E+20
 35
-1.000000000000000E+20
146
0.0
 13
0.0
 23
0.0
 33
0.0
 16
1.0
 26
0.0
 36
0.0
 17
0.0
 27
1.0
 37
0.0
 76
     0
330
17
  0
LAYOUT
  5
B89
102
{ACAD_XDICTIONARY
360
FEE
102
}
102
{ACAD_REACTORS
330
B87
102
}
330
B87
100
AcDbPlotSettings
  1

  2
RICOH Aficio MP W2400 RPCS
  4
A4
  6

 40
5.027082920074462
 41
5.027099609375
 42
5.027069091796875
 43
5.027069091796875
 44
209.9733276367187
 45
296.9259948730469
 46
0.0
 47
0.0
 48
0.0
 49
0.0
140
0.0
141
0.0
142
1.0
143
65.81833977629615
 70
 11952
 72
     0
 73
     1
 74
     0
  7
HP_Farbe_Dünn.ctb
 75
     0
147
0.0151933337030197
148
1897.74022751893
149
13.06894323358939
100
AcDbLayout
  1
Model
 70
     1
 71
     0
 10
0.0
 20
0.0
 11
12.0
 21
9.0
 12
0.0
 22
0.0
 32
0.0
 14
0.0
 24
0.0
 34
0.0
 15
0.0
 25
0.0
 35
0.0
146
0.0
 13
0.0
 23
0.0
 33
0.0
 16
1.0
 26
0.0
 36
0.0
 17
0.0
 27
1.0
 37
0.0
 76
     0
330
1A
331
B2F
1001
ACAD_PSEXT
1000
RICOH Aficio MP W2400 RPCS
1000
RICOH Aficio MP W2400 RPCS
1000
192.168.49.64
1000

1070
     0
  0
MATERIAL
  5
B3C
102
{ACAD_XDICTIONARY
360
B3D
102
}
102
{ACAD_REACTORS
330
B33
102
}
330
B33
100
AcDbMaterial
  1
ByBlock
 72
     0
 43
0.0208333333333333
 43
0.0
 43
0.0
 43
0.0
 43
0.0
 43
0.0208333333333333
 43
0.0
 43
0.0
 43
0.0
 43
0.0
 43
1.0
 43
0.0
 43
0.0
 43
0.0
 43
0.0
 43
1.0
 77
     0
 47
0.0208333333333333
 47
0.0
 47
0.0
 47
0.0
 47
0.0
 47
0.0208333333333333
 47
0.0
 47
0.0
 47
0.0
 47
0.0
 47
1.0
 47
0.0
 47
0.0
 47
0.0
 47
0.0
 47
1.0
171
     0
 49
0.0208333333333333
 49
0.0
 49
0.0
 49
0.0
 49
0.0
 49
0.0208333333333333
 49
0.0
 49
0.0
 49
0.0
 49
0.0
 49
1.0
 49
0.0
 49
0.0
 49
0.0
 49
0.0
 49
1.0
175
     0
142
0.0208333333333333
142
0.0
142
0.0
142
0.0
142
0.0
142
0.0208333333333333
142
0.0
142
0.0
142
0.0
142
0.0
142
1.0
142
0.0
142
0.0
142
0.0
142
0.0
142
1.0
179
     0
144
0.0208333333333333
144
0.0
144
0.0
144
0.0
144
0.0
144
0.0208333333333333
144
0.0
144
0.0
144
0.0
144
0.0
144
1.0
144
0.0
144
0.0
144
0.0
144
0.0
144
1.0
147
0.0208333333333333
147
0.0
147
0.0
147
0.0
147
0.0
147
0.0208333333333333
147
0.0
147
0.0
147
0.0
147
0.0
147
1.0
147
0.0
147
0.0
147
0.0
147
0.0
147
1.0
  0
MATERIAL
  5
B34
102
{ACAD_XDICTIONARY
360
B35
102
}
102
{ACAD_REACTORS
330
B33
102
}
330
B33
100
AcDbMaterial
  1
ByLayer
 72
     0
 43
0.0208333333333333
 43
0.0
 43
0.0
 43
0.0
 43
0.0
 43
0.0208333333333333
 43
0.0
 43
0.0
 43
0.0
 43
0.0
 43
1.0
 43
0.0
 43
0.0
 43
0.0
 43
0.0
 43
1.0
 77
     0
 47
0.0208333333333333
 47
0.0
 47
0.0
 47
0.0
 47
0.0
 47
0.0208333333333333
 47
0.0
 47
0.0
 47
0.0
 47
0.0
 47
1.0
 47
0.0
 47
0.0
 47
0.0
 47
0.0
 47
1.0
171
     0
 49
0.0208333333333333
 49
0.0
 49
0.0
 49
0.0
 49
0.0
 49
0.0208333333333333
 49
0.0
 49
0.0
 49
0.0
 49
0.0
 49
1.0
 49
0.0
 49
0.0
 49
0.0
 49
0.0
 49
1.0
175
     0
142
0.0208333333333333
142
0.0
142
0.0
142
0.0
142
0.0
142
0.0208333333333333
142
0.0
142
0.0
142
0.0
142
0.0
142
1.0
142
0.0
142
0.0
142
0.0
142
0.0
142
1.0
179
     0
144
0.0208333333333333
144
0.0
144
0.0
144
0.0
144
0.0
144
0.0208333333333333
144
0.0
144
0.0
144
0.0
144
0.0
144
1.0
144
0.0
144
0.0
144
0.0
144
0.0
144
1.0
147
0.0208333333333333
147
0.0
147
0.0
147
0.0
147
0.0
147
0.0208333333333333
147
0.0
147
0.0
147
0.0
147
0.0
147
1.0
147
0.0
147
0.0
147
0.0
147
0.0
147
1.0
  0
MATERIAL
  5
B44
102
{ACAD_XDICTIONARY
360
B45
102
}
102
{ACAD_REACTORS
330
B33
102
}
330
B33
100
AcDbMaterial
  1
Global
 72
     0
 43
0.0208333333333333
 43
0.0
 43
0.0
 43
0.0
 43
0.0
 43
0.0208333333333333
 43
0.0
 43
0.0
 43
0.0
 43
0.0
 43
1.0
 43
0.0
 43
0.0
 43
0.0
 43
0.0
 43
1.0
 77
     0
 47
0.0208333333333333
 47
0.0
 47
0.0
 47
0.0
 47
0.0
 47
0.0208333333333333
 47
0.0
 47
0.0
 47
0.0
 47
0.0
 47
1.0
 47
0.0
 47
0.0
 47
0.0
 47
0.0
 47
1.0
171
     0
 49
0.0208333333333333
 49
0.0
 49
0.0
 49
0.0
 49
0.0
 49
0.0208333333333333
 49
0.0
 49
0.0
 49
0.0
 49
0.0
 49
1.0
 49
0.0
 49
0.0
 49
0.0
 49
0.0
 49
1.0
175
     0
142
0.0208333333333333
142
0.0
142
0.0
142
0.0
142
0.0
142
0.0208333333333333
142
0.0
142
0.0
142
0.0
142
0.0
142
1.0
142
0.0
142
0.0
142
0.0
142
0.0
142
1.0
179
     0
144
0.0208333333333333
144
0.0
144
0.0
144
0.0
144
0.0
144
0.0208333333333333
144
0.0
144
0.0
144
0.0
144
0.0
144
1.0
144
0.0
144
0.0
144
0.0
144
0.0
144
1.0
147
0.0208333333333333
147
0.0
147
0.0
147
0.0
147
0.0
147
0.0208333333333333
147
0.0
147
0.0
147
0.0
147
0.0
147
1.0
147
0.0
147
0.0
147
0.0
147
0.0
147
1.0
  0
MLEADERSTYLE
  5
B86
102
{ACAD_REACTORS
330
B85
102
}
330
B85
100
AcDbMLeaderStyle
170
     2
171
     1
172
     0
 90
        2
 40
0.0
 41
0.0
173
     1
 91
-1056964608
340
14
 92
       -2
290
     1
 42
0.09
291
     1
 43
0.36
  3
Standard
 44
0.18
300

342
10
174
     1
178
     6
175
     1
176
     0
 93
-1056964608
 45
0.18
292
     0
297
     0
 46
0.18
 94
-1056964608
 47
1.0
 49
1.0
140
1.0
293
     1
141
0.0
294
     1
177
     0
142
1.0
295
     0
296
     0
143
0.125
1001
ACAD_MLEADERVER
1070
     2
  0
MLINESTYLE
  5
13
102
{ACAD_REACTORS
330
E
102
}
330
E
100
AcDbMlineStyle
  2
STANDARD
 70
     0
  3

 62
     0
 51
90.0
 52
90.0
 71
     2
 49
0.5
 62
   256
  6
BYLAYER
 49
-0.5
 62
   256
  6
BYLAYER
  0
PDFDEFINITION
  5
F87
102
{ACAD_REACTORS
330
CE2
330
F88
102
}
330
CE2
100
AcDbUnderlayDefinition
  1
2900444.pdf
  2
1
  0
PDFDEFINITION
  5
CE4
102
{ACAD_REACTORS
330
CE2
102
}
330
CE2
100
AcDbUnderlayDefinition
  1
F:\User\Daten\DWG\Anw\RN\NEUE KATALOGZG\Interzoll\NEUE NC2-KatalogZG\2900444-FL-IZ-Flansche 6HE.pdf
  2
1
  0
PDFDEFINITION
  5
DB8
102
{ACAD_REACTORS
330
CE2
330
DB9
102
}
330
CE2
100
AcDbUnderlayDefinition
  1
F:\User\Daten\DWG\Anw\RN\NEUE KATALOGZG\Interzoll\NEUE NC2-KatalogZG\2900444_FL-IZ-Flansch 6HE.pdf
  2
1
  0
ACDBPLACEHOLDER
  5
B32
102
{ACAD_REACTORS
330
B31
102
}
330
B31
  0
SCALE
  5
B64
102
{ACAD_REACTORS
330
B63
102
}
330
B63
100
AcDbScale
 70
     0
300
1:1
140
1.0
141
1.0
290
     1
  0
SCALE
  5
B65
102
{ACAD_REACTORS
330
B63
102
}
330
B63
100
AcDbScale
 70
     0
300
1:2
140
1.0
141
2.0
290
     0
  0
SCALE
  5
B66
102
{ACAD_REACTORS
330
B63
102
}
330
B63
100
AcDbScale
 70
     0
300
1:4
140
1.0
141
4.0
290
     0
  0
SCALE
  5
B67
102
{ACAD_REACTORS
330
B63
102
}
330
B63
100
AcDbScale
 70
     0
300
1:5
140
1.0
141
5.0
290
     0
  0
SCALE
  5
B68
102
{ACAD_REACTORS
330
B63
102
}
330
B63
100
AcDbScale
 70
     0
300
1:8
140
1.0
141
8.0
290
     0
  0
SCALE
  5
B69
102
{ACAD_REACTORS
330
B63
102
}
330
B63
100
AcDbScale
 70
     0
300
1:10
140
1.0
141
10.0
290
     0
  0
SCALE
  5
B6A
102
{ACAD_REACTORS
330
B63
102
}
330
B63
100
AcDbScale
 70
     0
300
1:16
140
1.0
141
16.0
290
     0
  0
SCALE
  5
B6B
102
{ACAD_REACTORS
330
B63
102
}
330
B63
100
AcDbScale
 70
     0
300
1:20
140
1.0
141
20.0
290
     0
  0
SCALE
  5
B6C
102
{ACAD_REACTORS
330
B63
102
}
330
B63
100
AcDbScale
 70
     0
300
1:30
140
1.0
141
30.0
290
     0
  0
SCALE
  5
B6D
102
{ACAD_REACTORS
330
B63
102
}
330
B63
100
AcDbScale
 70
     0
300
1:40
140
1.0
141
40.0
290
     0
  0
SCALE
  5
B6E
102
{ACAD_REACTORS
330
B63
102
}
330
B63
100
AcDbScale
 70
     0
300
1:50
140
1.0
141
50.0
290
     0
  0
SCALE
  5
B6F
102
{ACAD_REACTORS
330
B63
102
}
330
B63
100
AcDbScale
 70
     0
300
1:100
140
1.0
141
100.0
290
     0
  0
SCALE
  5
B70
102
{ACAD_REACTORS
330
B63
102
}
330
B63
100
AcDbScale
 70
     0
300
2:1
140
2.0
141
1.0
290
     0
  0
SCALE
  5
B71
102
{ACAD_REACTORS
330
B63
102
}
330
B63
100
AcDbScale
 70
     0
300
4:1
140
4.0
141
1.0
290
     0
  0
SCALE
  5
B72
102
{ACAD_REACTORS
330
B63
102
}
330
B63
100
AcDbScale
 70
     0
300
8:1
140
8.0
141
1.0
290
     0
  0
SCALE
  5
B73
102
{ACAD_REACTORS
330
B63
102
}
330
B63
100
AcDbScale
 70
     0
300
10:1
140
10.0
141
1.0
290
     0
  0
SCALE
  5
B74
102
{ACAD_REACTORS
330
B63
102
}
330
B63
100
AcDbScale
 70
     0
300
100:1
140
100.0
141
1.0
290
     0
  0
SCALE
  5
B75
102
{ACAD_REACTORS
330
B63
102
}
330
B63
100
AcDbScale
 70
     0
300
1/128" = 1'-0"
140
0.0078125
141
12.0
290
     0
  0
SCALE
  5
B76
102
{ACAD_REACTORS
330
B63
102
}
330
B63
100
AcDbScale
 70
     0
300
1/64" = 1'-0"
140
0.015625
141
12.0
290
     0
  0
SCALE
  5
B77
102
{ACAD_REACTORS
330
B63
102
}
330
B63
100
AcDbScale
 70
     0
300
1/32" = 1'-0"
140
0.03125
141
12.0
290
     0
  0
SCALE
  5
B78
102
{ACAD_REACTORS
330
B63
102
}
330
B63
100
AcDbScale
 70
     0
300
1/16" = 1'-0"
140
0.0625
141
12.0
290
     0
  0
SCALE
  5
B79
102
{ACAD_REACTORS
330
B63
102
}
330
B63
100
AcDbScale
 70
     0
300
3/32" = 1'-0"
140
0.09375
141
12.0
290
     0
  0
SCALE
  5
B7A
102
{ACAD_REACTORS
330
B63
102
}
330
B63
100
AcDbScale
 70
     0
300
1/8" = 1'-0"
140
0.125
141
12.0
290
     0
  0
SCALE
  5
B7B
102
{ACAD_REACTORS
330
B63
102
}
330
B63
100
AcDbScale
 70
     0
300
3/16" = 1'-0"
140
0.1875
141
12.0
290
     0
  0
SCALE
  5
B7C
102
{ACAD_REACTORS
330
B63
102
}
330
B63
100
AcDbScale
 70
     0
300
1/4" = 1'-0"
140
0.25
141
12.0
290
     0
  0
SCALE
  5
B7D
102
{ACAD_REACTORS
330
B63
102
}
330
B63
100
AcDbScale
 70
     0
300
3/8" = 1'-0"
140
0.375
141
12.0
290
     0
  0
SCALE
  5
B7E
102
{ACAD_REACTORS
330
B63
102
}
330
B63
100
AcDbScale
 70
     0
300
1/2" = 1'-0"
140
0.5
141
12.0
290
     0
  0
SCALE
  5
B7F
102
{ACAD_REACTORS
330
B63
102
}
330
B63
100
AcDbScale
 70
     0
300
3/4" = 1'-0"
140
0.75
141
12.0
290
     0
  0
SCALE
  5
B80
102
{ACAD_REACTORS
330
B63
102
}
330
B63
100
AcDbScale
 70
     0
300
1" = 1'-0"
140
1.0
141
12.0
290
     0
  0
SCALE
  5
B81
102
{ACAD_REACTORS
330
B63
102
}
330
B63
100
AcDbScale
 70
     0
300
1-1/2" = 1'-0"
140
1.5
141
12.0
290
     0
  0
SCALE
  5
B82
102
{ACAD_REACTORS
330
B63
102
}
330
B63
100
AcDbScale
 70
     0
300
3" = 1'-0"
140
3.0
141
12.0
290
     0
  0
SCALE
  5
B83
102
{ACAD_REACTORS
330
B63
102
}
330
B63
100
AcDbScale
 70
     0
300
6" = 1'-0"
140
6.0
141
12.0
290
     0
  0
SCALE
  5
B84
102
{ACAD_REACTORS
330
B63
102
}
330
B63
100
AcDbScale
 70
     0
300
1'-0" = 1'-0"
140
12.0
141
12.0
290
     0
  0
TABLESTYLE
  5
B62
102
{ACAD_XDICTIONARY
360
D33
102
}
102
{ACAD_REACTORS
330
B61
102
}
330
B61
100
AcDbTableStyle
  3
Standard
 70
     0
 71
     0
 40
0.06
 41
0.06
280
     0
281
     0
  7
STANDARD
140
0.18
170
     2
 62
     0
 63
     7
283
     0
274
    -2
284
     1
 64
     0
275
    -2
285
     1
 65
     0
276
    -2
286
     1
 66
     0
277
    -2
287
     1
 67
     0
278
    -2
288
     1
 68
     0
279
    -2
289
     1
 69
     0
  7
STANDARD
140
0.25
170
     5
 62
     0
 63
     7
283
     0
274
    -2
284
     1
 64
     0
275
    -2
285
     1
 65
     0
276
    -2
286
     1
 66
     0
277
    -2
287
     1
 67
     0
278
    -2
288
     1
 68
     0
279
    -2
289
     1
 69
     0
  7
STANDARD
140
0.18
170
     5
 62
     0
 63
     7
283
     0
274
    -2
284
     1
 64
     0
275
    -2
285
     1
 65
     0
276
    -2
286
     1
 66
     0
277
    -2
287
     1
 67
     0
278
    -2
288
     1
 68
     0
279
    -2
289
     1
 69
     0
  0
VISUALSTYLE
  5
B52
102
{ACAD_XDICTIONARY
360
FD1
102
}
102
{ACAD_REACTORS
330
B4C
102
}
330
B4C
100
AcDbVisualStyle
  2
2dWireframe
 70
     4
 71
     0
 72
     2
 73
     0
 90
        0
 40
-0.6
 41
-30.0
 62
     5
 63
     7
 74
     1
 91
        4
 64
     7
 65
   257
 75
     1
175
     1
 42
1.0
 92
        0
 66
   257
 43
1.0
 76
     1
 77
     6
 78
     2
 67
     7
 79
     5
170
     0
171
     0
290
     0
174
     0
 93
        1
 44
0.0
173
     0
291
     0
 45
0.0
1001
ACAD
1000
AcDbSavedByObjectVersion
1070
     0
  0
VISUALSTYLE
  5
B54
102
{ACAD_XDICTIONARY
360
FD5
102
}
102
{ACAD_REACTORS
330
B4C
102
}
330
B4C
100
AcDbVisualStyle
  2
3D Hidden
 70
     6
 71
     1
 72
     2
 73
     2
 90
        0
 40
-0.6
 41
-30.0
 62
     5
 63
     7
 74
     2
 91
        2
 64
     7
 65
   257
 75
     2
175
     1
 42
179.0
 92
        0
 66
   257
 43
1.0
 76
     1
 77
     6
 78
     2
 67
     7
 79
     3
170
     0
171
     0
290
     0
174
     0
 93
        1
 44
0.0
173
     0
291
     0
 45
0.0
1001
ACAD
1000
AcDbSavedByObjectVersion
1070
     0
  0
VISUALSTYLE
  5
B53
102
{ACAD_XDICTIONARY
360
FD3
102
}
102
{ACAD_REACTORS
330
B4C
102
}
330
B4C
100
AcDbVisualStyle
  2
3dWireframe
 70
     5
 71
     0
 72
     2
 73
     0
 90
        0
 40
-0.6
 41
-30.0
 62
     5
 63
     7
 74
     1
 91
        4
 64
     7
 65
   257
 75
     1
175
     1
 42
1.0
 92
        0
 66
   257
 43
1.0
 76
     1
 77
     6
 78
     2
 67
     7
 79
     5
170
     0
171
     0
290
     0
174
     0
 93
        1
 44
0.0
173
     0
291
     0
 45
0.0
1001
ACAD
1000
AcDbSavedByObjectVersion
1070
     0
  0
VISUALSTYLE
  5
B51
102
{ACAD_XDICTIONARY
360
FCF
102
}
102
{ACAD_REACTORS
330
B4C
102
}
330
B4C
100
AcDbVisualStyle
  2
Basic
 70
     7
 71
     1
 72
     0
 73
     1
 90
        0
 40
-0.6
 41
-30.0
 62
     5
 63
     7
 74
     0
 91
        4
 64
     7
 65
   257
 75
     1
175
     1
 42
1.0
 92
        8
 66
     7
 43
1.0
 76
     1
 77
     6
 78
     2
 67
     7
 79
     5
170
     0
171
     0
290
     0
174
     0
 93
        1
 44
0.0
173
     0
291
     1
 45
0.0
1001
ACAD
1000
AcDbSavedByObjectVersion
1070
     0
  0
VISUALSTYLE
  5
B58
102
{ACAD_XDICTIONARY
360
FDD
102
}
102
{ACAD_REACTORS
330
B4C
102
}
330
B4C
100
AcDbVisualStyle
  2
Brighten
 70
    12
 71
     2
 72
     2
 73
     0
 90
        0
 40
-0.6
 41
-30.0
 62
     5
 63
     7
 74
     1
 91
        4
 64
     7
 65
   257
 75
     1
175
     1
 42
1.0
 92
        8
 66
     7
 43
1.0
 76
     1
 77
     6
 78
     2
 67
     7
 79
     5
170
     0
171
     0
290
     0
174
     0
 93
        1
 44
50.0
173
     0
291
     1
 45
0.0
1001
ACAD
1000
AcDbSavedByObjectVersion
1070
     0
  0
VISUALSTYLE
  5
B5C
102
{ACAD_XDICTIONARY
360
FE5
102
}
102
{ACAD_REACTORS
330
B4C
102
}
330
B4C
100
AcDbVisualStyle
  2
ColorChange
 70
    16
 71
     2
 72
     2
 73
     3
 90
        0
 40
-0.6
 41
-30.0
 62
     5
 63
     8
 74
     1
 91
        4
 64
     7
 65
   257
 75
     1
175
     1
 42
1.0
 92
        8
 66
     8
 43
1.0
 76
     1
 77
     6
 78
     2
 67
     7
 79
     5
170
     0
171
     0
290
     0
174
     0
 93
        1
 44
0.0
173
     0
291
     1
 45
0.0
1001
ACAD
1000
AcDbSavedByObjectVersion
1070
     0
  0
VISUALSTYLE
  5
B55
102
{ACAD_XDICTIONARY
360
FD7
102
}
102
{ACAD_REACTORS
330
B4C
102
}
330
B4C
100
AcDbVisualStyle
  2
Conceptual
 70
     9
 71
     3
 72
     2
 73
     0
 90
        0
 40
-0.6
 41
-30.0
 62
     5
 63
     7
 74
     2
 91
        2
 64
     7
 65
   257
 75
     1
175
     1
 42
179.0
 92
        8
 66
     7
 43
1.0
 76
     1
 77
     6
 78
     2
 67
     7
 79
     3
170
     0
171
     0
290
     0
174
     0
 93
        1
 44
0.0
173
     0
291
     0
 45
0.0
1001
ACAD
1000
AcDbSavedByObjectVersion
1070
     0
  0
VISUALSTYLE
  5
B57
102
{ACAD_XDICTIONARY
360
FDB
102
}
102
{ACAD_REACTORS
330
B4C
102
}
330
B4C
100
AcDbVisualStyle
  2
Dim
 70
    11
 71
     2
 72
     2
 73
     0
 90
        0
 40
-0.6
 41
-30.0
 62
     5
 63
     7
 74
     1
 91
        4
 64
     7
 65
   257
 75
     1
175
     1
 42
1.0
 92
        8
 66
     7
 43
1.0
 76
     1
 77
     6
 78
     2
 67
     7
 79
     5
170
     0
171
     0
290
     0
174
     0
 93
        1
 44
-50.0
173
     0
291
     1
 45
0.0
1001
ACAD
1000
AcDbSavedByObjectVersion
1070
     0
  0
VISUALSTYLE
  5
B5F
102
{ACAD_XDICTIONARY
360
FEB
102
}
102
{ACAD_REACTORS
330
B4C
102
}
330
B4C
100
AcDbVisualStyle
  2
EdgeColorOff
 70
    22
 71
     2
 72
     2
 73
     0
 90
        0
 40
-0.6
 41
-30.0
 62
     5
 63
     7
 74
     1
 91
        4
 64
     7
 65
   257
 75
     1
175
     1
 42
1.0
 92
        8
 66
     7
 43
1.0
 76
     1
 77
     6
 78
     2
 67
     7
 79
     5
170
     0
171
     0
290
     0
174
     0
 93
        1
 44
0.0
173
     0
291
     1
 45
0.0
1001
ACAD
1000
AcDbSavedByObjectVersion
1070
     0
  0
VISUALSTYLE
  5
B5B
102
{ACAD_XDICTIONARY
360
FE3
102
}
102
{ACAD_REACTORS
330
B4C
102
}
330
B4C
100
AcDbVisualStyle
  2
Facepattern
 70
    15
 71
     2
 72
     2
 73
     0
 90
        0
 40
-0.6
 41
-30.0
 62
     5
 63
     7
 74
     1
 91
        4
 64
     7
 65
   257
 75
     1
175
     1
 42
1.0
 92
        8
 66
     7
 43
1.0
 76
     1
 77
     6
 78
     2
 67
     7
 79
     5
170
     0
171
     0
290
     0
174
     0
 93
        1
 44
0.0
173
     0
291
     1
 45
0.0
1001
ACAD
1000
AcDbSavedByObjectVersion
1070
     0
  0
VISUALSTYLE
  5
B4D
102
{ACAD_XDICTIONARY
360
FC7
102
}
102
{ACAD_REACTORS
330
B4C
102
}
330
B4C
100
AcDbVisualStyle
  2
Flat
 70
     0
 71
     2
 72
     1
 73
     1
 90
        2
 40
-0.6
 41
30.0
 62
     5
 63
     7
 74
     0
 91
        4
 64
     7
 65
   257
 75
     1
175
     1
 42
1.0
 92
        8
 66
     7
 43
1.0
 76
     1
 77
     6
 78
     2
 67
     7
 79
     5
170
     0
171
     0
290
     0
174
     0
 93
       13
 44
0.0
173
     0
291
     1
 45
0.0
1001
ACAD
1000
AcDbSavedByObjectVersion
1070
     0
  0
VISUALSTYLE
  5
B4E
102
{ACAD_XDICTIONARY
360
FC9
102
}
102
{ACAD_REACTORS
330
B4C
102
}
330
B4C
100
AcDbVisualStyle
  2
FlatWithEdges
 70
     1
 71
     2
 72
     1
 73
     1
 90
        2
 40
-0.6
 41
30.0
 62
     5
 63
     7
 74
     1
 91
        4
 64
     7
 65
   257
 75
     1
175
     1
 42
1.0
 92
        0
 66
   257
 43
1.0
 76
     1
 77
     6
 78
     2
 67
     7
 79
     5
170
     0
171
     0
290
     0
174
     0
 93
       13
 44
0.0
173
     0
291
     1
 45
0.0
1001
ACAD
1000
AcDbSavedByObjectVersion
1070
     0
  0
VISUALSTYLE
  5
B4F
102
{ACAD_XDICTIONARY
360
FCB
102
}
102
{ACAD_REACTORS
330
B4C
102
}
330
B4C
100
AcDbVisualStyle
  2
Gouraud
 70
     2
 71
     2
 72
     2
 73
     1
 90
        2
 40
-0.6
 41
30.0
 62
     5
 63
     7
 74
     0
 91
        4
 64
     7
 65
   257
 75
     1
175
     1
 42
1.0
 92
        0
 66
     7
 43
1.0
 76
     1
 77
     6
 78
     2
 67
     7
 79
     5
170
     0
171
     0
290
     0
174
     0
 93
       13
 44
0.0
173
     0
291
     1
 45
0.0
1001
ACAD
1000
AcDbSavedByObjectVersion
1070
     0
  0
VISUALSTYLE
  5
B50
102
{ACAD_XDICTIONARY
360
FCD
102
}
102
{ACAD_REACTORS
330
B4C
102
}
330
B4C
100
AcDbVisualStyle
  2
GouraudWithEdges
 70
     3
 71
     2
 72
     2
 73
     1
 90
        2
 40
-0.6
 41
30.0
 62
     5
 63
     7
 74
     1
 91
        4
 64
     7
 65
   257
 75
     1
175
     1
 42
1.0
 92
        0
 66
   257
 43
1.0
 76
     1
 77
     6
 78
     2
 67
     7
 79
     5
170
     0
171
     0
290
     0
174
     0
 93
       13
 44
0.0
173
     0
291
     1
 45
0.0
1001
ACAD
1000
AcDbSavedByObjectVersion
1070
     0
  0
VISUALSTYLE
  5
B5D
102
{ACAD_XDICTIONARY
360
FE7
102
}
102
{ACAD_REACTORS
330
B4C
102
}
330
B4C
100
AcDbVisualStyle
  2
JitterOff
 70
    20
 71
     2
 72
     2
 73
     0
 90
        0
 40
-0.6
 41
-30.0
 62
     5
 63
     7
 74
     1
 91
        4
 64
     7
 65
   257
 75
     1
175
     1
 42
1.0
 92
       10
 66
     7
 43
1.0
 76
     1
 77
     6
 78
     2
 67
     7
 79
     5
170
     0
171
     0
290
     0
174
     0
 93
        1
 44
0.0
173
     0
291
     1
 45
0.0
1001
ACAD
1000
AcDbSavedByObjectVersion
1070
     0
  0
VISUALSTYLE
  5
B5A
102
{ACAD_XDICTIONARY
360
FE1
102
}
102
{ACAD_REACTORS
330
B4C
102
}
330
B4C
100
AcDbVisualStyle
  2
Linepattern
 70
    14
 71
     2
 72
     2
 73
     0
 90
        0
 40
-0.6
 41
-30.0
 62
     5
 63
     7
 74
     1
 91
        4
 64
     7
 65
   257
 75
     7
175
     7
 42
1.0
 92
        8
 66
     7
 43
1.0
 76
     1
 77
     6
 78
     2
 67
     7
 79
     5
170
     0
171
     0
290
     0
174
     0
 93
        1
 44
0.0
173
     0
291
     1
 45
0.0
1001
ACAD
1000
AcDbSavedByObjectVersion
1070
     0
  0
VISUALSTYLE
  5
B5E
102
{ACAD_XDICTIONARY
360
FE9
102
}
102
{ACAD_REACTORS
330
B4C
102
}
330
B4C
100
AcDbVisualStyle
  2
OverhangOff
 70
    21
 71
     2
 72
     2
 73
     0
 90
        0
 40
-0.6
 41
-30.0
 62
     5
 63
     7
 74
     1
 91
        4
 64
     7
 65
   257
 75
     1
175
     1
 42
1.0
 92
        9
 66
     7
 43
1.0
 76
     1
 77
     6
 78
     2
 67
     7
 79
     5
170
     0
171
     0
290
     0
174
     0
 93
        1
 44
0.0
173
     0
291
     1
 45
0.0
1001
ACAD
1000
AcDbSavedByObjectVersion
1070
     0
  0
VISUALSTYLE
  5
B56
102
{ACAD_XDICTIONARY
360
FD9
102
}
102
{ACAD_REACTORS
330
B4C
102
}
330
B4C
100
AcDbVisualStyle
  2
Realistic
 70
     8
 71
     2
 72
     2
 73
     0
 90
        0
 40
-0.6
 41
-30.0
 62
     5
 63
     7
 74
     1
 91
        0
 64
     7
 65
   257
 75
     1
175
     1
 42
1.0
 92
        8
 66
     8
 43
1.0
 76
     1
 77
     6
 78
     2
 67
     7
 79
     5
170
     0
171
     0
290
     0
174
     0
 93
       13
 44
0.0
173
     0
291
     0
 45
0.0
1001
ACAD
1000
AcDbSavedByObjectVersion
1070
     0
  0
VISUALSTYLE
  5
B59
102
{ACAD_XDICTIONARY
360
FDF
102
}
102
{ACAD_REACTORS
330
B4C
102
}
330
B4C
100
AcDbVisualStyle
  2
Thicken
 70
    13
 71
     2
 72
     2
 73
     0
 90
        0
 40
-0.6
 41
-30.0
 62
     5
 63
     7
 74
     1
 91
        4
 64
     7
 65
   257
 75
     1
175
     1
 42
1.0
 92
       12
 66
     7
 43
1.0
 76
     1
 77
     6
 78
     2
 67
     7
 79
     5
170
     0
171
     0
290
     0
174
     0
 93
        1
 44
0.0
173
     0
291
     1
 45
0.0
1001
ACAD
1000
AcDbSavedByObjectVersion
1070
     0
  0
ACAD_PROXY_OBJECT
  5
D2
330
0
100
AcDbProxyObject
 90
      499
 91
      538
 95
   393235
 70
     0
 93
      736
310
9084D2E312E3232336407014B7269BC41100000000000000E03F1EC52B91F85EA10FE1EC52B91F85EA10FD034153471EC52B91F85EA10FC000000FC83D797414650540C000000000000E03F3F2A7C749358940FC000000FC83D7974164
 94
        0
1001
ACAD
1000
AcRTDxfName
1000
ASSYSVARS
1000
AcRTDxfName
1000
ASSYSVARS
1000
AcRTDxfName
1000
ASSYSVARS
1000
AcRTDxfName
1000
ASSYSVARS
1000
AcRTDxfName
1000
ASSYSVARS
1000
AcRTDxfName
1000
ASSYSVARS
  0
DICTIONARYVAR
  5
D71
102
{ACAD_REACTORS
330
D6E
102
}
330
D6E
100
DictionaryVariables
280
     0
  1
1:1
  0
DICTIONARYVAR
  5
D70
102
{ACAD_REACTORS
330
D6E
102
}
330
D6E
100
DictionaryVariables
280
     0
  1
STANDARD
  0
DICTIONARYVAR
  5
D6F
102
{ACAD_REACTORS
330
D6E
102
}
330
D6E
100
DictionaryVariables
280
     0
  1
STANDARD
  0
DICTIONARYVAR
  5
D74
102
{ACAD_REACTORS
330
D6E
102
}
330
D6E
100
DictionaryVariables
280
     0
  1
1
  0
DICTIONARYVAR
  5
D73
102
{ACAD_REACTORS
330
D6E
102
}
330
D6E
100
DictionaryVariables
280
     0
  1
0
  0
DICTIONARYVAR
  5
D72
102
{ACAD_REACTORS
330
D6E
102
}
330
D6E
100
DictionaryVariables
280
     0
  1
127
  0
DICTIONARYVAR
  5
FBE
102
{ACAD_REACTORS
330
D6E
102
}
330
D6E
100
DictionaryVariables
280
     0
  1
2
  0
ACAD_PROXY_OBJECT
  5
85
330
0
100
AcDbProxyObject
 90
      499
 91
      507
 95
   393235
 70
     0
 93
      354
310
000000000000405AA6A9AA40504646174650142118B8C4B8C8C8CD9C0504646174650142118B8C4B8C8C8CD9FF
330
7F
330
86
330
87
330
89
330
0
330
0
 94
        0
1001
ACAD
1000
AcRTDxfName
1000
ADAPPL
1000
AcRTDxfName
1000
ADAPPL
1000
AcRTDxfName
1000
ADAPPL
1000
AcRTDxfName
1000
ADAPPL
1000
AcRTDxfName
1000
ADAPPL
1000
AcRTDxfName
1000
ADAPPL
  0
ACAD_PROXY_OBJECT
  5
86
330
0
100
AcDbProxyObject
 90
      499
 91
      508
 95
   393235
 70
     0
 93
      120
310
00009024410100000092080002A6A600
330
7F
330
96
330
95
330
0
 94
        0
1001
ACAD
1000
AcRTDxfName
1000
DEPMGR
1000
AcRTDxfName
1000
DEPMGR
1000
AcRTDxfName
1000
DEPMGR
1000
AcRTDxfName
1000
DEPMGR
1000
AcRTDxfName
1000
DEPMGR
1000
AcRTDxfName
1000
DEPMGR
  0
ACAD_PROXY_OBJECT
  5
87
330
0
100
AcDbProxyObject
 90
      499
 91
      509
 95
   393235
 70
     0
 93
       46
310
00000000920B
330
7F
330
0
330
88
 94
        0
1001
ACAD
1000
AcRTDxfName
1000
PARAMMGR
1000
AcRTDxfName
1000
PARAMMGR
1000
AcRTDxfName
1000
PARAMMGR
1000
AcRTDxfName
1000
PARAMMGR
1000
AcRTDxfName
1000
PARAMMGR
1000
AcRTDxfName
1000
PARAMMGR
  0
ACAD_PROXY_OBJECT
  5
88
330
0
100
AcDbProxyObject
 90
      499
 91
      510
 95
   393235
 70
     0
 93
       22
310
0000AB
330
7F
 94
        0
1001
ACAD
1000
AcRTDxfName
1000
PARAMSCOPE
1000
AcRTDxfName
1000
PARAMSCOPE
1000
AcRTDxfName
1000
PARAMSCOPE
1000
AcRTDxfName
1000
PARAMSCOPE
1000
AcRTDxfName
1000
PARAMSCOPE
1000
AcRTDxfName
1000
PARAMSCOPE
  0
ACAD_PROXY_OBJECT
  5
8A
330
0
100
AcDbProxyObject
 90
      499
 91
      512
 95
   393235
 70
     0
 93
      124
310
00000142905350D3D39114D414D6905F
330
7F
 94
        0
1001
ACAD
1000
AcRTDxfName
1000
SYSTEM_VAR_INT
1000
AcRTDxfName
1000
SYSTEM_VAR_INT
1000
AcRTDxfName
1000
SYSTEM_VAR_INT
1000
AcRTDxfName
1000
SYSTEM_VAR_INT
1000
AcRTDxfName
1000
SYSTEM_VAR_INT
1000
AcRTDxfName
1000
SYSTEM_VAR_INT
  0
ACAD_PROXY_OBJECT
  5
8B
330
0
100
AcDbProxyObject
 90
      499
 91
      512
 95
   393235
 70
     0
 93
      124
310
000001429053549553115353D111501F
330
7F
 94
        0
1001
ACAD
1000
AcRTDxfName
1000
SYSTEM_VAR_INT
1000
AcRTDxfName
1000
SYSTEM_VAR_INT
1000
AcRTDxfName
1000
SYSTEM_VAR_INT
1000
AcRTDxfName
1000
SYSTEM_VAR_INT
1000
AcRTDxfName
1000
SYSTEM_VAR_INT
1000
AcRTDxfName
1000
SYSTEM_VAR_INT
  0
ACAD_PROXY_OBJECT
  5
8C
330
0
100
AcDbProxyObject
 90
      499
 91
      512
 95
   393235
 70
     0
 93
      108
310
00000142105354D2D353D111501F
330
7F
 94
        0
1001
ACAD
1000
AcRTDxfName
1000
SYSTEM_VAR_INT
1000
AcRTDxfName
1000
SYSTEM_VAR_INT
1000
AcRTDxfName
1000
SYSTEM_VAR_INT
1000
AcRTDxfName
1000
SYSTEM_VAR_INT
1000
AcRTDxfName
1000
SYSTEM_VAR_INT
1000
AcRTDxfName
1000
SYSTEM_VAR_INT
  0
ACAD_PROXY_OBJECT
  5
8D
330
0
100
AcDbProxyObject
 90
      499
 91
      512
 95
   393235
 70
     0
 93
      140
310
000001435053511253511254D41353D1116F
330
7F
 94
        0
1001
ACAD
1000
AcRTDxfName
1000
SYSTEM_VAR_INT
1000
AcRTDxfName
1000
SYSTEM_VAR_INT
1000
AcRTDxfName
1000
SYSTEM_VAR_INT
1000
AcRTDxfName
1000
SYSTEM_VAR_INT
1000
AcRTDxfName
1000
SYSTEM_VAR_INT
1000
AcRTDxfName
1000
SYSTEM_VAR_INT
  0
ACAD_PROXY_OBJECT
  5
8E
330
0
100
AcDbProxyObject
 90
      499
 91
      513
 95
   393235
 70
     0
 93
      180
310
00000142905354D2D05391D513D300000000000001040F
330
7F
 94
        0
1001
ACAD
1000
AcRTDxfName
1000
SYSTEM_VAR_REAL
1000
AcRTDxfName
1000
SYSTEM_VAR_REAL
1000
AcRTDxfName
1000
SYSTEM_VAR_REAL
1000
AcRTDxfName
1000
SYSTEM_VAR_REAL
1000
AcRTDxfName
1000
SYSTEM_VAR_REAL
1000
AcRTDxfName
1000
SYSTEM_VAR_REAL
  0
ACAD_PROXY_OBJECT
  5
8F
330
0
100
AcDbProxyObject
 90
      499
 91
      514
 95
   393235
 70
     0
 93
      164
310
00000142505354D2D4D516531140505434F4E542AF
330
7F
 94
        0
1001
ACAD
1000
AcRTDxfName
1000
SYSTEM_VAR_STR
1000
AcRTDxfName
1000
SYSTEM_VAR_STR
1000
AcRTDxfName
1000
SYSTEM_VAR_STR
1000
AcRTDxfName
1000
SYSTEM_VAR_STR
1000
AcRTDxfName
1000
SYSTEM_VAR_STR
1000
AcRTDxfName
1000
SYSTEM_VAR_STR
  0
ACAD_PROXY_OBJECT
  5
90
330
0
100
AcDbProxyObject
 90
      499
 91
      512
 95
   393235
 70
     0
 93
      108
310
00000142105350D351111253501F
330
7F
 94
        0
1001
ACAD
1000
AcRTDxfName
1000
SYSTEM_VAR_INT
1000
AcRTDxfName
1000
SYSTEM_VAR_INT
1000
AcRTDxfName
1000
SYSTEM_VAR_INT
1000
AcRTDxfName
1000
SYSTEM_VAR_INT
1000
AcRTDxfName
1000
SYSTEM_VAR_INT
1000
AcRTDxfName
1000
SYSTEM_VAR_INT
  0
ACAD_PROXY_OBJECT
  5
91
330
0
100
AcDbProxyObject
 90
      499
 91
      514
 95
   393235
 70
     0
 93
      116
310
00000142505354105491925311406F
330
7F
 94
        0
1001
ACAD
1000
AcRTDxfName
1000
SYSTEM_VAR_STR
1000
AcRTDxfName
1000
SYSTEM_VAR_STR
1000
AcRTDxfName
1000
SYSTEM_VAR_STR
1000
AcRTDxfName
1000
SYSTEM_VAR_STR
1000
AcRTDxfName
1000
SYSTEM_VAR_STR
1000
AcRTDxfName
1000
SYSTEM_VAR_STR
  0
ACAD_PROXY_OBJECT
  5
92
330
0
100
AcDbProxyObject
 90
      499
 91
      512
 95
   393235
 70
     0
 93
      100
310
00000142105350D3D35414D5AF
330
7F
 94
        0
1001
ACAD
1000
AcRTDxfName
1000
SYSTEM_VAR_INT
1000
AcRTDxfName
1000
SYSTEM_VAR_INT
1000
AcRTDxfName
1000
SYSTEM_VAR_INT
1000
AcRTDxfName
1000
SYSTEM_VAR_INT
1000
AcRTDxfName
1000
SYSTEM_VAR_INT
1000
AcRTDxfName
1000
SYSTEM_VAR_INT
  0
ACAD_PROXY_OBJECT
  5
95
330
0
100
AcDbProxyObject
 90
      499
 91
      517
 95
   393235
 70
     0
 93
      164
310
000092090148200A00000440000FFFFFFFF000000F
330
7F
330
96
330
86
330
0
 94
        0
1001
ACAD
1000
AcRTDxfName
1000
ADBASE
1000
AcRTDxfName
1000
ADBASE
1000
AcRTDxfName
1000
ADBASE
1000
AcRTDxfName
1000
ADBASE
1000
AcRTDxfName
1000
ADBASE
1000
AcRTDxfName
1000
ADBASE
  0
ACAD_PROXY_OBJECT
  5
96
330
0
100
AcDbProxyObject
 90
      499
 91
      518
 95
   393235
 70
     0
 93
       82
310
000040520802482A80003F
330
7F
330
95
330
86
330
0
 94
        0
1001
ACAD
1000
AcRTDxfName
1000
BODYID
1000
AcRTDxfName
1000
BODYID
1000
AcRTDxfName
1000
BODYID
1000
AcRTDxfName
1000
BODYID
1000
AcRTDxfName
1000
BODYID
1000
AcRTDxfName
1000
BODYID
  0
ACAD_PROXY_OBJECT
  5
97
330
0
100
AcDbProxyObject
 90
      499
 91
      510
 95
   393235
 70
     0
 93
       22
310
0000AB
330
7F
 94
        0
1001
ACAD
1000
AcRTDxfName
1000
PARAMSCOPE
1000
AcRTDxfName
1000
PARAMSCOPE
1000
AcRTDxfName
1000
PARAMSCOPE
1000
AcRTDxfName
1000
PARAMSCOPE
1000
AcRTDxfName
1000
PARAMSCOPE
1000
AcRTDxfName
1000
PARAMSCOPE
  0
ACAD_PROXY_OBJECT
  5
98
330
0
100
AcDbProxyObject
 90
      499
 91
      519
 95
   393235
 70
     0
 93
       38
310
000000920B
330
7F
330
0
 94
        0
1001
ACAD
1000
AcRTDxfName
1000
WORKPLANEDISPLAYMGR
1000
AcRTDxfName
1000
WORKPLANEDISPLAYMGR
1000
AcRTDxfName
1000
WORKPLANEDISPLAYMGR
1000
AcRTDxfName
1000
WORKPLANEDISPLAYMGR
1000
AcRTDxfName
1000
WORKPLANEDISPLAYMGR
1000
AcRTDxfName
1000
WORKPLANEDISPLAYMGR
  0
ACAD_PROXY_OBJECT
  5
99
330
0
100
AcDbProxyObject
 90
      499
 91
      520
 95
   393235
 70
     0
 93
     3204
310
0000419208050A44555243485F424F4852014254D050D2D7D093D2148050C44555243485F5A594C494E440142D4D050D2D7D696531253910050B44555243485F4B4547454C014294D050D2D7D2D151D15310648201451EC94958C8094950535112504811155490D20B9F4051D7B252563202525414D4449412058202525414
310
D4445502054494546457D014F5EC94958C8094950535112504811155490D20B9F57141ED6965312539108094958C80949505350D112504816080949505350D09111540815125151915F405467B252563202525414D4449412058202525414D4445502054494546457D5C507B5A594C494E4420252563202525414D43444941
310
2058202525414D43424445502054494546457D014E5EC94958C8094950535112504811155490D20B9F57141ED2D151D15308094958C80949505350D112504816080949505350D4D05391C949591F405427B252563202525414D4449412058202525414D4445502054494546457D5C507B4B4547454C20252563202525414D4
310
34449412058202525414D4353414E472525647DF
330
7F
 94
        0
1001
ACAD
1000
AcRTDxfName
1000
ADHNTMPLT
1000
AcRTDxfName
1000
ADHNTMPLT
1000
AcRTDxfName
1000
ADHNTMPLT
1000
AcRTDxfName
1000
ADHNTMPLT
1000
AcRTDxfName
1000
ADHNTMPLT
1000
AcRTDxfName
1000
ADHNTMPLT
  0
ACAD_PROXY_OBJECT
  5
9C
330
0
100
AcDbProxyObject
 90
      499
 91
      523
 95
   393235
 70
     0
 93
      332
310
0000014119185D1940508442E312E32323362014119185D1940508442E312E323233624050100000000F
330
7F
330
9D
330
9F
330
A0
330
0
 94
        0
1001
ACAD
1000
AcRTDxfName
1000
AM_DRAWING_MGR
1000
AcRTDxfName
1000
AM_DRAWING_MGR
1000
AcRTDxfName
1000
AM_DRAWING_MGR
1000
AcRTDxfName
1000
AM_DRAWING_MGR
1000
AcRTDxfName
1000
AM_DRAWING_MGR
1000
AcRTDxfName
1000
AM_DRAWING_MGR
  0
ACAD_PROXY_OBJECT
  5
9D
330
0
100
AcDbProxyObject
 90
      499
 91
      524
 95
   393235
 70
     0
 93
       56
310
0000901441010000
330
7F
330
9E
 94
        0
1001
ACAD
1000
AcRTDxfName
1000
AM_DWG_DOCUMENT
1000
AcRTDxfName
1000
AM_DWG_DOCUMENT
1000
AcRTDxfName
1000
AM_DWG_DOCUMENT
1000
AcRTDxfName
1000
AM_DWG_DOCUMENT
1000
AcRTDxfName
1000
AM_DWG_DOCUMENT
1000
AcRTDxfName
1000
AM_DWG_DOCUMENT
  0
ACAD_PROXY_OBJECT
  5
9E
330
0
100
AcDbProxyObject
 90
      499
 91
      525
 95
   393235
 70
     0
 93
       40
310
0000A4410144
330
7F
 94
        0
1001
ACAD
1000
AcRTDxfName
1000
AM_DWG_SHEET
1000
AcRTDxfName
1000
AM_DWG_SHEET
1000
AcRTDxfName
1000
AM_DWG_SHEET
1000
AcRTDxfName
1000
AM_DWG_SHEET
1000
AcRTDxfName
1000
AM_DWG_SHEET
1000
AcRTDxfName
1000
AM_DWG_SHEET
  0
ACAD_PROXY_OBJECT
  5
9F
330
0
100
AcDbProxyObject
 90
      499
 91
      526
 95
   393235
 70
     0
 93
       68
310
0000A44101920A482F
330
7F
 94
        0
1001
ACAD
1000
AcRTDxfName
1000
AM_VIEWDIMPARMAP
1000
AcRTDxfName
1000
AM_VIEWDIMPARMAP
1000
AcRTDxfName
1000
AM_VIEWDIMPARMAP
1000
AcRTDxfName
1000
AM_VIEWDIMPARMAP
1000
AcRTDxfName
1000
AM_VIEWDIMPARMAP
1000
AcRTDxfName
1000
AM_VIEWDIMPARMAP
  0
ACAD_PROXY_OBJECT
  5
A1
330
0
100
AcDbProxyObject
 90
      499
 91
      512
 95
   393235
 70
     0
 93
      108
310
000001421053521310D05310D01F
330
7F
 94
        0
1001
ACAD
1000
AcRTDxfName
1000
SYSTEM_VAR_INT
1000
AcRTDxfName
1000
SYSTEM_VAR_INT
1000
AcRTDxfName
1000
SYSTEM_VAR_INT
1000
AcRTDxfName
1000
SYSTEM_VAR_INT
1000
AcRTDxfName
1000
SYSTEM_VAR_INT
1000
AcRTDxfName
1000
SYSTEM_VAR_INT
  0
ACAD_PROXY_OBJECT
  5
A2
330
0
100
AcDbProxyObject
 90
      499
 91
      512
 95
   393235
 70
     0
 93
      124
310
000001429053541493D295165411501F
330
7F
 94
        0
1001
ACAD
1000
AcRTDxfName
1000
SYSTEM_VAR_INT
1000
AcRTDxfName
1000
SYSTEM_VAR_INT
1000
AcRTDxfName
1000
SYSTEM_VAR_INT
1000
AcRTDxfName
1000
SYSTEM_VAR_INT
1000
AcRTDxfName
1000
SYSTEM_VAR_INT
1000
AcRTDxfName
1000
SYSTEM_VAR_INT
  0
ACAD_PROXY_OBJECT
  5
A3
330
0
100
AcDbProxyObject
 90
      499
 91
      512
 95
   393235
 70
     0
 93
      124
310
00000142905354915554D1511253501F
330
7F
 94
        0
1001
ACAD
1000
AcRTDxfName
1000
SYSTEM_VAR_INT
1000
AcRTDxfName
1000
SYSTEM_VAR_INT
1000
AcRTDxfName
1000
SYSTEM_VAR_INT
1000
AcRTDxfName
1000
SYSTEM_VAR_INT
1000
AcRTDxfName
1000
SYSTEM_VAR_INT
1000
AcRTDxfName
1000
SYSTEM_VAR_INT
  0
ACAD_PROXY_OBJECT
  5
A4
330
0
100
AcDbProxyObject
 90
      499
 91
      512
 95
   393235
 70
     0
 93
      132
310
00000143105354D150D51253D39112536F
330
7F
 94
        0
1001
ACAD
1000
AcRTDxfName
1000
SYSTEM_VAR_INT
1000
AcRTDxfName
1000
SYSTEM_VAR_INT
1000
AcRTDxfName
1000
SYSTEM_VAR_INT
1000
AcRTDxfName
1000
SYSTEM_VAR_INT
1000
AcRTDxfName
1000
SYSTEM_VAR_INT
1000
AcRTDxfName
1000
SYSTEM_VAR_INT
  0
ACAD_PROXY_OBJECT
  5
A5
330
0
100
AcDbProxyObject
 90
      499
 91
      512
 95
   393235
 70
     0
 93
      124
310
00000142905355941093D4911154901F
330
7F
 94
        0
1001
ACAD
1000
AcRTDxfName
1000
SYSTEM_VAR_INT
1000
AcRTDxfName
1000
SYSTEM_VAR_INT
1000
AcRTDxfName
1000
SYSTEM_VAR_INT
1000
AcRTDxfName
1000
SYSTEM_VAR_INT
1000
AcRTDxfName
1000
SYSTEM_VAR_INT
1000
AcRTDxfName
1000
SYSTEM_VAR_INT
  0
ACAD_PROXY_OBJECT
  5
A6
330
0
100
AcDbProxyObject
 90
      499
 91
      512
 95
   393235
 70
     0
 93
      116
310
0000014290535115D1D0D3D313D4AF
330
7F
 94
        0
1001
ACAD
1000
AcRTDxfName
1000
SYSTEM_VAR_INT
1000
AcRTDxfName
1000
SYSTEM_VAR_INT
1000
AcRTDxfName
1000
SYSTEM_VAR_INT
1000
AcRTDxfName
1000
SYSTEM_VAR_INT
1000
AcRTDxfName
1000
SYSTEM_VAR_INT
1000
AcRTDxfName
1000
SYSTEM_VAR_INT
  0
ACAD_PROXY_OBJECT
  5
A7
330
0
100
AcDbProxyObject
 90
      499
 91
      514
 95
   393235
 70
     0
 93
      196
310
0000014290535212511315165411405085645524445434B54F
330
7F
 94
        0
1001
ACAD
1000
AcRTDxfName
1000
SYSTEM_VAR_STR
1000
AcRTDxfName
1000
SYSTEM_VAR_STR
1000
AcRTDxfName
1000
SYSTEM_VAR_STR
1000
AcRTDxfName
1000
SYSTEM_VAR_STR
1000
AcRTDxfName
1000
SYSTEM_VAR_STR
1000
AcRTDxfName
1000
SYSTEM_VAR_STR
  0
ACAD_PROXY_OBJECT
  5
A9
330
0
100
AcDbProxyObject
 90
      499
 91
      514
 95
   393235
 70
     0
 93
      196
310
00000142905354D150D315165411405085048414E544F4D32F
330
7F
 94
        0
1001
ACAD
1000
AcRTDxfName
1000
SYSTEM_VAR_STR
1000
AcRTDxfName
1000
SYSTEM_VAR_STR
1000
AcRTDxfName
1000
SYSTEM_VAR_STR
1000
AcRTDxfName
1000
SYSTEM_VAR_STR
1000
AcRTDxfName
1000
SYSTEM_VAR_STR
1000
AcRTDxfName
1000
SYSTEM_VAR_STR
  0
ACAD_PROXY_OBJECT
  5
AA
330
0
100
AcDbProxyObject
 90
      499
 91
      512
 95
   393235
 70
     0
 93
      108
310
00000142105354D51114D0D5102F
330
7F
 94
        0
1001
ACAD
1000
AcRTDxfName
1000
SYSTEM_VAR_INT
1000
AcRTDxfName
1000
SYSTEM_VAR_INT
1000
AcRTDxfName
1000
SYSTEM_VAR_INT
1000
AcRTDxfName
1000
SYSTEM_VAR_INT
1000
AcRTDxfName
1000
SYSTEM_VAR_INT
1000
AcRTDxfName
1000
SYSTEM_VAR_INT
  0
ACAD_PROXY_OBJECT
  5
AB
330
0
100
AcDbProxyObject
 90
      499
 91
      512
 95
   393235
 70
     0
 93
      108
310
00000142105354D511151054102F
330
7F
 94
        0
1001
ACAD
1000
AcRTDxfName
1000
SYSTEM_VAR_INT
1000
AcRTDxfName
1000
SYSTEM_VAR_INT
1000
AcRTDxfName
1000
SYSTEM_VAR_INT
1000
AcRTDxfName
1000
SYSTEM_VAR_INT
1000
AcRTDxfName
1000
SYSTEM_VAR_INT
1000
AcRTDxfName
1000
SYSTEM_VAR_INT
  0
ACAD_PROXY_OBJECT
  5
AC
330
0
100
AcDbProxyObject
 90
      499
 91
      512
 95
   393235
 70
     0
 93
      108
310
00000142105354D511111513102F
330
7F
 94
        0
1001
ACAD
1000
AcRTDxfName
1000
SYSTEM_VAR_INT
1000
AcRTDxfName
1000
SYSTEM_VAR_INT
1000
AcRTDxfName
1000
SYSTEM_VAR_INT
1000
AcRTDxfName
1000
SYSTEM_VAR_INT
1000
AcRTDxfName
1000
SYSTEM_VAR_INT
1000
AcRTDxfName
1000
SYSTEM_VAR_INT
  0
ACAD_PROXY_OBJECT
  5
AD
330
0
100
AcDbProxyObject
 90
      499
 91
      513
 95
   393235
 70
     0
 93
      148
310
00000141905350D310D34295C8FC2F528BC3FF
330
7F
 94
        0
1001
ACAD
1000
AcRTDxfName
1000
SYSTEM_VAR_REAL
1000
AcRTDxfName
1000
SYSTEM_VAR_REAL
1000
AcRTDxfName
1000
SYSTEM_VAR_REAL
1000
AcRTDxfName
1000
SYSTEM_VAR_REAL
1000
AcRTDxfName
1000
SYSTEM_VAR_REAL
1000
AcRTDxfName
1000
SYSTEM_VAR_REAL
  0
ACAD_PROXY_OBJECT
  5
AE
330
0
100
AcDbProxyObject
 90
      499
 91
      513
 95
   393235
 70
     0
 93
      156
310
00000141D05350D311D05402B8716D9CEF7C33FF
330
7F
 94
        0
1001
ACAD
1000
AcRTDxfName
1000
SYSTEM_VAR_REAL
1000
AcRTDxfName
1000
SYSTEM_VAR_REAL
1000
AcRTDxfName
1000
SYSTEM_VAR_REAL
1000
AcRTDxfName
1000
SYSTEM_VAR_REAL
1000
AcRTDxfName
1000
SYSTEM_VAR_REAL
1000
AcRTDxfName
1000
SYSTEM_VAR_REAL
  0
ACAD_PROXY_OBJECT
  5
AF
330
0
100
AcDbProxyObject
 90
      499
 91
      513
 95
   393235
 70
     0
 93
      164
310
00000142105350D313D4D2150295C8FC2F528BC3FF
330
7F
 94
        0
1001
ACAD
1000
AcRTDxfName
1000
SYSTEM_VAR_REAL
1000
AcRTDxfName
1000
SYSTEM_VAR_REAL
1000
AcRTDxfName
1000
SYSTEM_VAR_REAL
1000
AcRTDxfName
1000
SYSTEM_VAR_REAL
1000
AcRTDxfName
1000
SYSTEM_VAR_REAL
1000
AcRTDxfName
1000
SYSTEM_VAR_REAL
  0
ACAD_PROXY_OBJECT
  5
B0
330
0
100
AcDbProxyObject
 90
      499
 91
      512
 95
   393235
 70
     0
 93
      100
310
00000141D05350D3141054901F
330
7F
 94
        0
1001
ACAD
1000
AcRTDxfName
1000
SYSTEM_VAR_INT
1000
AcRTDxfName
1000
SYSTEM_VAR_INT
1000
AcRTDxfName
1000
SYSTEM_VAR_INT
1000
AcRTDxfName
1000
SYSTEM_VAR_INT
1000
AcRTDxfName
1000
SYSTEM_VAR_INT
1000
AcRTDxfName
1000
SYSTEM_VAR_INT
  0
ACAD_PROXY_OBJECT
  5
B1
330
0
100
AcDbProxyObject
 90
      499
 91
      512
 95
   393235
 70
     0
 93
      100
310
0000014210535590539254D22F
330
7F
 94
        0
1001
ACAD
1000
AcRTDxfName
1000
SYSTEM_VAR_INT
1000
AcRTDxfName
1000
SYSTEM_VAR_INT
1000
AcRTDxfName
1000
SYSTEM_VAR_INT
1000
AcRTDxfName
1000
SYSTEM_VAR_INT
1000
AcRTDxfName
1000
SYSTEM_VAR_INT
1000
AcRTDxfName
1000
SYSTEM_VAR_INT
  0
ACAD_PROXY_OBJECT
  5
B2
330
0
100
AcDbProxyObject
 90
      499
 91
      513
 95
   393235
 70
     0
 93
      188
310
00000142D0535312539155121250D2C295C8FC2F5289C3FF
330
7F
 94
        0
1001
ACAD
1000
AcRTDxfName
1000
SYSTEM_VAR_REAL
1000
AcRTDxfName
1000
SYSTEM_VAR_REAL
1000
AcRTDxfName
1000
SYSTEM_VAR_REAL
1000
AcRTDxfName
1000
SYSTEM_VAR_REAL
1000
AcRTDxfName
1000
SYSTEM_VAR_REAL
1000
AcRTDxfName
1000
SYSTEM_VAR_REAL
  0
ACAD_PROXY_OBJECT
  5
B3
330
0
100
AcDbProxyObject
 90
      499
 91
      514
 95
   393235
 70
     0
 93
      156
310
00000142105350D315165411405054D49545445F
330
7F
 94
        0
1001
ACAD
1000
AcRTDxfName
1000
SYSTEM_VAR_STR
1000
AcRTDxfName
1000
SYSTEM_VAR_STR
1000
AcRTDxfName
1000
SYSTEM_VAR_STR
1000
AcRTDxfName
1000
SYSTEM_VAR_STR
1000
AcRTDxfName
1000
SYSTEM_VAR_STR
1000
AcRTDxfName
1000
SYSTEM_VAR_STR
  0
ACAD_PROXY_OBJECT
  5
BC
330
0
100
AcDbProxyObject
 90
      499
 91
      512
 95
   393235
 70
     0
 93
      132
310
00000142D05050555513D4D3D31591501F
330
7F
 94
        0
1001
ACAD
1000
AcRTDxfName
1000
SYSTEM_VAR_INT
1000
AcRTDxfName
1000
SYSTEM_VAR_INT
1000
AcRTDxfName
1000
SYSTEM_VAR_INT
1000
AcRTDxfName
1000
SYSTEM_VAR_INT
1000
AcRTDxfName
1000
SYSTEM_VAR_INT
1000
AcRTDxfName
1000
SYSTEM_VAR_INT
  0
ACAD_PROXY_OBJECT
  5
BD
330
0
100
AcDbProxyObject
 90
      499
 91
      512
 95
   393235
 70
     0
 93
      156
310
00000143905050555513D054D4D153509311501F
330
7F
 94
        0
1001
ACAD
1000
AcRTDxfName
1000
SYSTEM_VAR_INT
1000
AcRTDxfName
1000
SYSTEM_VAR_INT
1000
AcRTDxfName
1000
SYSTEM_VAR_INT
1000
AcRTDxfName
1000
SYSTEM_VAR_INT
1000
AcRTDxfName
1000
SYSTEM_VAR_INT
1000
AcRTDxfName
1000
SYSTEM_VAR_INT
  0
ACAD_PROXY_OBJECT
  5
BE
330
0
100
AcDbProxyObject
 90
      499
 91
      512
 95
   393235
 70
     0
 93
      148
310
00000143505055925155D49154D513D491501F
330
7F
 94
        0
1001
ACAD
1000
AcRTDxfName
1000
SYSTEM_VAR_INT
1000
AcRTDxfName
1000
SYSTEM_VAR_INT
1000
AcRTDxfName
1000
SYSTEM_VAR_INT
1000
AcRTDxfName
1000
SYSTEM_VAR_INT
1000
AcRTDxfName
1000
SYSTEM_VAR_INT
1000
AcRTDxfName
1000
SYSTEM_VAR_INT
  0
ACAD_PROXY_OBJECT
  5
BF
330
0
100
AcDbProxyObject
 90
      499
 91
      512
 95
   393235
 70
     0
 93
      124
310
00000142D050525394D15495105094EF
330
7F
 94
        0
1001
ACAD
1000
AcRTDxfName
1000
SYSTEM_VAR_INT
1000
AcRTDxfName
1000
SYSTEM_VAR_INT
1000
AcRTDxfName
1000
SYSTEM_VAR_INT
1000
AcRTDxfName
1000
SYSTEM_VAR_INT
1000
AcRTDxfName
1000
SYSTEM_VAR_INT
1000
AcRTDxfName
1000
SYSTEM_VAR_INT
  0
ACAD_PROXY_OBJECT
  5
C6
330
0
100
AcDbProxyObject
 90
      499
 91
      531
 95
   393235
 70
     0
 93
       32
310
0000000000
330
7F
340
C3
330
C7
330
C3
 94
        0
1001
ACAD
1000
AcRTDxfName
1000
ACAMGRCOMPDEF
1000
AcRTDxfName
1000
ACAMGRCOMPDEF
1000
AcRTDxfName
1000
ACAMGRCOMPDEF
1000
AcRTDxfName
1000
ACAMGRCOMPDEF
1000
AcRTDxfName
1000
ACAMGRCOMPDEF
1000
AcRTDxfName
1000
ACAMGRCOMPDEF
  0
ACAD_PROXY_OBJECT
  5
C7
330
0
100
AcDbProxyObject
 90
      499
 91
      532
 95
   393235
 70
     0
 93
      143
310
0000014213905351539313D4D0400522080D
330
7F
330
C6
 94
        0
1001
ACAD
1000
AcRTDxfName
1000
ACAMCOMPDEF
1000
AcRTDxfName
1000
ACAMCOMPDEF
1000
AcRTDxfName
1000
ACAMCOMPDEF
1000
AcRTDxfName
1000
ACAMCOMPDEF
1000
AcRTDxfName
1000
ACAMCOMPDEF
1000
AcRTDxfName
1000
ACAMCOMPDEF
  0
ACAD_PROXY_OBJECT
  5
C8
330
0
100
AcDbProxyObject
 90
      499
 91
      533
 95
   393235
 70
     0
 93
       72
310
000000A44101A4410140
330
7F
330
C7
 94
        0
1001
ACAD
1000
AcRTDxfName
1000
ACAMCOMPDEFMGR
1000
AcRTDxfName
1000
ACAMCOMPDEFMGR
1000
AcRTDxfName
1000
ACAMCOMPDEFMGR
1000
AcRTDxfName
1000
ACAMCOMPDEFMGR
1000
AcRTDxfName
1000
ACAMCOMPDEFMGR
1000
AcRTDxfName
1000
ACAMCOMPDEFMGR
  0
ACAD_PROXY_OBJECT
  5
C9
330
0
100
AcDbProxyObject
 90
      499
 91
      534
 95
   393235
 70
     0
 93
       80
310
0000901441010000000066
330
7F
330
CA
330
CA
330
CA
330
CA
 94
        0
1001
ACAD
1000
AcRTDxfName
1000
AMCONTEXTMGR
1000
AcRTDxfName
1000
AMCONTEXTMGR
1000
AcRTDxfName
1000
AMCONTEXTMGR
1000
AcRTDxfName
1000
AMCONTEXTMGR
1000
AcRTDxfName
1000
AMCONTEXTMGR
1000
AcRTDxfName
1000
AMCONTEXTMGR
  0
ACAD_PROXY_OBJECT
  5
CA
330
0
100
AcDbProxyObject
 90
      499
 91
      535
 95
   393235
 70
     0
 93
      173
310
00000000406AAAAAAAAAAAAAAAAA806A44101A441017
330
7F
330
C9
330
C7
 94
        0
1001
ACAD
1000
AcRTDxfName
1000
ACAMCONTEXTMODELER
1000
AcRTDxfName
1000
ACAMCONTEXTMODELER
1000
AcRTDxfName
1000
ACAMCONTEXTMODELER
1000
AcRTDxfName
1000
ACAMCONTEXTMODELER
1000
AcRTDxfName
1000
ACAMCONTEXTMODELER
1000
AcRTDxfName
1000
ACAMCONTEXTMODELER
  0
ACAD_PROXY_OBJECT
  5
CE
330
0
100
AcDbProxyObject
 90
      499
 91
      536
 95
   393235
 70
     0
 93
       26
310
0000803F
330
7F
330
0
 94
        0
1001
ACAD
1000
AcRTDxfName
1000
ACAMDRAWINGMAN
1000
AcRTDxfName
1000
ACAMDRAWINGMAN
1000
AcRTDxfName
1000
ACAMDRAWINGMAN
1000
AcRTDxfName
1000
ACAMDRAWINGMAN
1000
AcRTDxfName
1000
ACAMDRAWINGMAN
1000
AcRTDxfName
1000
ACAMDRAWINGMAN
  0
DICTIONARY
  5
6BC
102
{ACAD_REACTORS
330
3B
102
}
330
3B
100
AcDbDictionary
281
     1
  3
$PH$AAAA
350
6C1
  3
$PH$AAAB
350
6C6
  3
PH_GRPMEMBERS
350
B90
  0
DICTIONARY
  5
6CC
102
{ACAD_REACTORS
330
3B
102
}
330
3B
100
AcDbDictionary
281
     1
  3
$PH$AAAA
350
6D1
  3
PH_GRPMEMBERS
350
B92
  0
DICTIONARY
  5
6D7
102
{ACAD_REACTORS
330
3B
102
}
330
3B
100
AcDbDictionary
281
     1
  3
$PH$AAAA
350
6DC
  3
PH_GRPMEMBERS
350
B94
  0
DICTIONARY
  5
6E2
102
{ACAD_REACTORS
330
3B
102
}
330
3B
100
AcDbDictionary
281
     1
  3
PH_GRPMEMBERS
350
B95
  0
DICTIONARY
  5
6E9
102
{ACAD_REACTORS
330
3B
102
}
330
3B
100
AcDbDictionary
281
     1
  3
$PH$AAAA
350
6EE
  3
$PH$AAAB
350
6F2
  3
PH_GRPMEMBERS
350
B98
  0
DICTIONARY
  5
6F8
102
{ACAD_REACTORS
330
3B
102
}
330
3B
100
AcDbDictionary
281
     1
  3
PH_GRPMEMBERS
350
B99
  0
DICTIONARY
  5
702
102
{ACAD_REACTORS
330
3B
102
}
330
3B
100
AcDbDictionary
281
     1
  3
PH_GRPMEMBERS
350
B9A
  0
DICTIONARY
  5
70A
102
{ACAD_REACTORS
330
3B
102
}
330
3B
100
AcDbDictionary
281
     1
  3
PH_GRPMEMBERS
350
B9B
  0
DICTIONARY
  5
714
102
{ACAD_REACTORS
330
3B
102
}
330
3B
100
AcDbDictionary
281
     1
  3
PH_GRPMEMBERS
350
B9C
  0
DICTIONARY
  5
71E
102
{ACAD_REACTORS
330
3B
102
}
330
3B
100
AcDbDictionary
281
     1
  3
PH_GRPMEMBERS
350
B9D
  0
DICTIONARY
  5
72A
102
{ACAD_REACTORS
330
3B
102
}
330
3B
100
AcDbDictionary
281
     1
  3
PH_GRPMEMBERS
350
B9E
  0
DICTIONARY
  5
736
102
{ACAD_REACTORS
330
3B
102
}
330
3B
100
AcDbDictionary
281
     1
  3
$PH$AAAA
350
73B
  3
PH_GRPMEMBERS
350
BA0
  0
DICTIONARY
  5
742
102
{ACAD_REACTORS
330
3B
102
}
330
3B
100
AcDbDictionary
281
     1
  3
$PH$AAAA
350
747
  3
PH_GRPMEMBERS
350
BA2
  0
DICTIONARY
  5
74D
102
{ACAD_REACTORS
330
3B
102
}
330
3B
100
AcDbDictionary
281
     1
  3
PH_GRPMEMBERS
350
BA3
  0
DICTIONARY
  5
757
102
{ACAD_REACTORS
330
3B
102
}
330
3B
100
AcDbDictionary
281
     1
  3
PH_GRPMEMBERS
350
BA4
  0
DICTIONARY
  5
761
102
{ACAD_REACTORS
330
3B
102
}
330
3B
100
AcDbDictionary
281
     1
  3
PH_GRPMEMBERS
350
BA5
  0
DICTIONARY
  5
76B
102
{ACAD_REACTORS
330
3B
102
}
330
3B
100
AcDbDictionary
281
     1
  3
PH_GRPMEMBERS
350
BA6
  0
DICTIONARY
  5
777
102
{ACAD_REACTORS
330
3B
102
}
330
3B
100
AcDbDictionary
281
     1
  3
PH_GRPMEMBERS
350
BA7
  0
DICTIONARY
  5
783
102
{ACAD_REACTORS
330
3B
102
}
330
3B
100
AcDbDictionary
281
     1
  3
PH_GRPMEMBERS
350
BA8
  0
DICTIONARY
  5
78F
102
{ACAD_REACTORS
330
3B
102
}
330
3B
100
AcDbDictionary
281
     1
  3
PH_GRPMEMBERS
350
BA9
  0
DICTIONARY
  5
79B
102
{ACAD_REACTORS
330
3B
102
}
330
3B
100
AcDbDictionary
281
     1
  3
PH_GRPMEMBERS
350
BAA
  0
DICTIONARY
  5
7A5
102
{ACAD_REACTORS
330
3B
102
}
330
3B
100
AcDbDictionary
281
     1
  3
PH_GRPMEMBERS
350
BAB
  0
DICTIONARY
  5
7AF
102
{ACAD_REACTORS
330
3B
102
}
330
3B
100
AcDbDictionary
281
     1
  3
$PH$AAAA
350
7B1
  3
$PH$AAAB
350
7C4
  3
$PH$AAAC
350
7D9
  3
PH_GRPMEMBERS
350
BAF
  0
DICTIONARY
  5
7EC
102
{ACAD_REACTORS
330
3B
102
}
330
3B
100
AcDbDictionary
281
     1
  3
PH_GRPMEMBERS
350
BB0
  0
DICTIONARY
  5
806
102
{ACAD_REACTORS
330
3B
102
}
330
3B
100
AcDbDictionary
281
     1
  3
$PH$AAAA
350
80E
  3
PH_GRPMEMBERS
350
BB2
  0
DICTIONARY
  5
C3F
102
{ACAD_REACTORS
330
3B
102
}
330
3B
100
AcDbDictionary
281
     1
  3
PH_GRPMEMBERS
350
C40
  0
DICTIONARY
  5
C89
102
{ACAD_REACTORS
330
3B
102
}
330
3B
100
AcDbDictionary
281
     1
  3
$PH$AAAA
350
C8A
  3
PH_GRPMEMBERS
350
C8E
  0
DICTIONARY
  5
FF0
330
B8A
100
AcDbDictionary
280
     1
281
     1
  3
ACAD_XREC_ROUNDTRIP
360
FF1
  0
DICTIONARY
  5
FEE
330
B89
100
AcDbDictionary
280
     1
281
     1
  3
ACAD_XREC_ROUNDTRIP
360
FEF
  0
DICTIONARY
  5
B3D
330
B3C
100
AcDbDictionary
280
     1
281
     1
  3
ACAD_XREC_ROUNDTRIP
360
FC5
  3
BUMPTILE
360
B3F
  3
DIFFUSETILE
360
B3E
  3
OPACITYTILE
360
B42
  3
REFLECTIONTILE
360
B41
  3
REFRACTIONTILE
360
B43
  3
SPECULARTILE
360
B40
  0
DICTIONARY
  5
B35
330
B34
100
AcDbDictionary
280
     1
281
     1
  3
ACAD_XREC_ROUNDTRIP
360
FC4
  3
BUMPTILE
360
B37
  3
DIFFUSETILE
360
B36
  3
OPACITYTILE
360
B3A
  3
REFLECTIONTILE
360
B39
  3
REFRACTIONTILE
360
B3B
  3
SPECULARTILE
360
B38
  0
DICTIONARY
  5
B45
330
B44
100
AcDbDictionary
280
     1
281
     1
  3
ACAD_XREC_ROUNDTRIP
360
FC6
  3
BUMPTILE
360
B47
  3
DIFFUSETILE
360
B46
  3
OPACITYTILE
360
B4A
  3
REFLECTIONTILE
360
B49
  3
REFRACTIONTILE
360
B4B
  3
SPECULARTILE
360
B48
  0
DICTIONARY
  5
D33
330
B62
100
AcDbDictionary
280
     1
281
     1
  3
ACAD_ROUNDTRIP_2008_TABLESTYLE_CELLSTYLEMAP
360
FBF
  3
ACAD_XREC_ROUNDTRIP
360
FED
  0
DICTIONARY
  5
FD1
330
B52
100
AcDbDictionary
280
     1
281
     1
  3
ACAD_XREC_ROUNDTRIP
360
FD2
  0
DICTIONARY
  5
FD5
330
B54
100
AcDbDictionary
280
     1
281
     1
  3
ACAD_XREC_ROUNDTRIP
360
FD6
  0
DICTIONARY
  5
FD3
330
B53
100
AcDbDictionary
280
     1
281
     1
  3
ACAD_XREC_ROUNDTRIP
360
FD4
  0
DICTIONARY
  5
FCF
330
B51
100
AcDbDictionary
280
     1
281
     1
  3
ACAD_XREC_ROUNDTRIP
360
FD0
  0
DICTIONARY
  5
FDD
330
B58
100
AcDbDictionary
280
     1
281
     1
  3
ACAD_XREC_ROUNDTRIP
360
FDE
  0
DICTIONARY
  5
FE5
330
B5C
100
AcDbDictionary
280
     1
281
     1
  3
ACAD_XREC_ROUNDTRIP
360
FE6
  0
DICTIONARY
  5
FD7
330
B55
100
AcDbDictionary
280
     1
281
     1
  3
ACAD_XREC_ROUNDTRIP
360
FD8
  0
DICTIONARY
  5
FDB
330
B57
100
AcDbDictionary
280
     1
281
     1
  3
ACAD_XREC_ROUNDTRIP
360
FDC
  0
DICTIONARY
  5
FEB
330
B5F
100
AcDbDictionary
280
     1
281
     1
  3
ACAD_XREC_ROUNDTRIP
360
FEC
  0
DICTIONARY
  5
FE3
330
B5B
100
AcDbDictionary
280
     1
281
     1
  3
ACAD_XREC_ROUNDTRIP
360
FE4
  0
DICTIONARY
  5
FC7
330
B4D
100
AcDbDictionary
280
     1
281
     1
  3
ACAD_XREC_ROUNDTRIP
360
FC8
  0
DICTIONARY
  5
FC9
330
B4E
100
AcDbDictionary
280
     1
281
     1
  3
ACAD_XREC_ROUNDTRIP
360
FCA
  0
DICTIONARY
  5
FCB
330
B4F
100
AcDbDictionary
280
     1
281
     1
  3
ACAD_XREC_ROUNDTRIP
360
FCC
  0
DICTIONARY
  5
FCD
330
B50
100
AcDbDictionary
280
     1
281
     1
  3
ACAD_XREC_ROUNDTRIP
360
FCE
  0
DICTIONARY
  5
FE7
330
B5D
100
AcDbDictionary
280
     1
281
     1
  3
ACAD_XREC_ROUNDTRIP
360
FE8
  0
DICTIONARY
  5
FE1
330
B5A
100
AcDbDictionary
280
     1
281
     1
  3
ACAD_XREC_ROUNDTRIP
360
FE2
  0
DICTIONARY
  5
FE9
330
B5E
100
AcDbDictionary
280
     1
281
     1
  3
ACAD_XREC_ROUNDTRIP
360
FEA
  0
DICTIONARY
  5
FD9
330
B56
100
AcDbDictionary
280
     1
281
     1
  3
ACAD_XREC_ROUNDTRIP
360
FDA
  0
DICTIONARY
  5
FDF
330
B59
100
AcDbDictionary
280
     1
281
     1
  3
ACAD_XREC_ROUNDTRIP
360
FE0
  0
DICTIONARY
  5
6C1
102
{ACAD_REACTORS
330
6BC
102
}
330
6BC
100
AcDbDictionary
281
     1
  3
PH_GRPMEMBERS
350
B8E
  0
DICTIONARY
  5
6C6
102
{ACAD_REACTORS
330
6BC
102
}
330
6BC
100
AcDbDictionary
281
     1
  3
PH_GRPMEMBERS
350
B8F
  0
PH_GROUP
  5
B90
102
{ACAD_REACTORS
330
6BC
102
}
330
6BC
  0
DICTIONARY
  5
6D1
102
{ACAD_REACTORS
330
6CC
102
}
330
6CC
100
AcDbDictionary
281
     1
  3
PH_GRPMEMBERS
350
B91
  0
PH_GROUP
  5
B92
102
{ACAD_REACTORS
330
6CC
102
}
330
6CC
  0
DICTIONARY
  5
6DC
102
{ACAD_REACTORS
330
6D7
102
}
330
6D7
100
AcDbDictionary
281
     1
  3
PH_GRPMEMBERS
350
B93
  0
PH_GROUP
  5
B94
102
{ACAD_REACTORS
330
6D7
102
}
330
6D7
  0
PH_GROUP
  5
B95
102
{ACAD_REACTORS
330
6E2
102
}
330
6E2
  0
DICTIONARY
  5
6EE
102
{ACAD_REACTORS
330
6E9
102
}
330
6E9
100
AcDbDictionary
281
     1
  3
PH_GRPMEMBERS
350
B96
  0
DICTIONARY
  5
6F2
102
{ACAD_REACTORS
330
6E9
102
}
330
6E9
100
AcDbDictionary
281
     1
  3
PH_GRPMEMBERS
350
B97
  0
PH_GROUP
  5
B98
102
{ACAD_REACTORS
330
6E9
102
}
330
6E9
  0
PH_GROUP
  5
B99
102
{ACAD_REACTORS
330
6F8
102
}
330
6F8
  0
PH_GROUP
  5
B9A
102
{ACAD_REACTORS
330
702
102
}
330
702
  0
PH_GROUP
  5
B9B
102
{ACAD_REACTORS
330
70A
102
}
330
70A
  0
PH_GROUP
  5
B9C
102
{ACAD_REACTORS
330
714
102
}
330
714
  0
PH_GROUP
  5
B9D
102
{ACAD_REACTORS
330
71E
102
}
330
71E
  0
PH_GROUP
  5
B9E
102
{ACAD_REACTORS
330
72A
102
}
330
72A
  0
DICTIONARY
  5
73B
102
{ACAD_REACTORS
330
736
102
}
330
736
100
AcDbDictionary
281
     1
  3
PH_GRPMEMBERS
350
B9F
  0
PH_GROUP
  5
BA0
102
{ACAD_REACTORS
330
736
102
}
330
736
  0
DICTIONARY
  5
747
102
{ACAD_REACTORS
330
742
102
}
330
742
100
AcDbDictionary
281
     1
  3
PH_GRPMEMBERS
350
BA1
  0
PH_GROUP
  5
BA2
102
{ACAD_REACTORS
330
742
102
}
330
742
  0
PH_GROUP
  5
BA3
102
{ACAD_REACTORS
330
74D
102
}
330
74D
  0
PH_GROUP
  5
BA4
102
{ACAD_REACTORS
330
757
102
}
330
757
  0
PH_GROUP
  5
BA5
102
{ACAD_REACTORS
330
761
102
}
330
761
  0
PH_GROUP
  5
BA6
102
{ACAD_REACTORS
330
76B
102
}
330
76B
  0
PH_GROUP
  5
BA7
102
{ACAD_REACTORS
330
777
102
}
330
777
  0
PH_GROUP
  5
BA8
102
{ACAD_REACTORS
330
783
102
}
330
783
  0
PH_GROUP
  5
BA9
102
{ACAD_REACTORS
330
78F
102
}
330
78F
  0
PH_GROUP
  5
BAA
102
{ACAD_REACTORS
330
79B
102
}
330
79B
  0
PH_GROUP
  5
BAB
102
{ACAD_REACTORS
330
7A5
102
}
330
7A5
  0
DICTIONARY
  5
7B1
102
{ACAD_REACTORS
330
7AF
102
}
330
7AF
100
AcDbDictionary
281
     1
  3
PH_GRPMEMBERS
350
BAC
  0
DICTIONARY
  5
7C4
102
{ACAD_REACTORS
330
7AF
102
}
330
7AF
100
AcDbDictionary
281
     1
  3
PH_GRPMEMBERS
350
BAD
  0
DICTIONARY
  5
7D9
102
{ACAD_REACTORS
330
7AF
102
}
330
7AF
100
AcDbDictionary
281
     1
  3
PH_GRPMEMBERS
350
BAE
  0
PH_GROUP
  5
BAF
102
{ACAD_REACTORS
330
7AF
102
}
330
7AF
  0
PH_GROUP
  5
BB0
102
{ACAD_REACTORS
330
7EC
102
}
330
7EC
  0
DICTIONARY
  5
80E
102
{ACAD_REACTORS
330
806
102
}
330
806
100
AcDbDictionary
281
     1
  3
PH_GRPMEMBERS
350
BB1
  0
PH_GROUP
  5
BB2
102
{ACAD_REACTORS
330
806
102
}
330
806
  0
PH_GROUP
  5
C40
102
{ACAD_REACTORS
330
C3F
102
}
330
C3F
  0
DICTIONARY
  5
C8A
102
{ACAD_REACTORS
330
C89
102
}
330
C89
100
AcDbDictionary
281
     1
  3
$PH$AAAA
350
C8B
  3
PH_GRPMEMBERS
350
C8D
  0
PH_GROUP
  5
C8E
102
{ACAD_REACTORS
330
C89
102
}
330
C89
  0
XRECORD
  5
FF1
102
{ACAD_REACTORS
330
FF0
102
}
330
FF0
100
AcDbXrecord
280
     1
102
SHADEPLOT
 70
     0
102
SHADEPLOTRESLEVEL
 70
     2
102
SHADEPLOTCUSTOMDPI
 70
   300
  0
XRECORD
  5
FEF
102
{ACAD_REACTORS
330
FEE
102
}
330
FEE
100
AcDbXrecord
280
     1
102
SHADEPLOT
 70
     0
102
SHADEPLOTRESLEVEL
 70
     2
102
SHADEPLOTCUSTOMDPI
 70
   300
  0
XRECORD
  5
FC5
102
{ACAD_REACTORS
330
B3D
102
}
330
B3D
100
AcDbXrecord
280
     1
102
MATERIAL
148
0.0
149
0.0
149
0.0
 93
        0
 94
      127
282
     0
 72
     0
 77
     0
171
     0
175
     0
179
     0
273
     0
  0
XRECORD
  5
B3F
102
{ACAD_REACTORS
330
B3D
102
}
330
B3D
100
AcDbXrecord
280
     1
270
     1
271
     1
  0
XRECORD
  5
B3E
102
{ACAD_REACTORS
330
B3D
102
}
330
B3D
100
AcDbXrecord
280
     1
270
     1
271
     1
  0
XRECORD
  5
B42
102
{ACAD_REACTORS
330
B3D
102
}
330
B3D
100
AcDbXrecord
280
     1
270
     1
271
     1
  0
XRECORD
  5
B41
102
{ACAD_REACTORS
330
B3D
102
}
330
B3D
100
AcDbXrecord
280
     1
270
     1
271
     1
  0
XRECORD
  5
B43
102
{ACAD_REACTORS
330
B3D
102
}
330
B3D
100
AcDbXrecord
280
     1
270
     1
271
     1
  0
XRECORD
  5
B40
102
{ACAD_REACTORS
330
B3D
102
}
330
B3D
100
AcDbXrecord
280
     1
270
     1
271
     1
  0
XRECORD
  5
FC4
102
{ACAD_REACTORS
330
B35
102
}
330
B35
100
AcDbXrecord
280
     1
102
MATERIAL
148
0.0
149
0.0
149
0.0
 93
        0
 94
      127
282
     0
 72
     0
 77
     0
171
     0
175
     0
179
     0
273
     0
  0
XRECORD
  5
B37
102
{ACAD_REACTORS
330
B35
102
}
330
B35
100
AcDbXrecord
280
     1
270
     1
271
     1
  0
XRECORD
  5
B36
102
{ACAD_REACTORS
330
B35
102
}
330
B35
100
AcDbXrecord
280
     1
270
     1
271
     1
  0
XRECORD
  5
B3A
102
{ACAD_REACTORS
330
B35
102
}
330
B35
100
AcDbXrecord
280
     1
270
     1
271
     1
  0
XRECORD
  5
B39
102
{ACAD_REACTORS
330
B35
102
}
330
B35
100
AcDbXrecord
280
     1
270
     1
271
     1
  0
XRECORD
  5
B3B
102
{ACAD_REACTORS
330
B35
102
}
330
B35
100
AcDbXrecord
280
     1
270
     1
271
     1
  0
XRECORD
  5
B38
102
{ACAD_REACTORS
330
B35
102
}
330
B35
100
AcDbXrecord
280
     1
270
     1
271
     1
  0
XRECORD
  5
FC6
102
{ACAD_REACTORS
330
B45
102
}
330
B45
100
AcDbXrecord
280
     1
102
MATERIAL
148
0.0
149
0.0
149
0.0
 93
        0
 94
      127
282
     0
 72
     0
 77
     0
171
     0
175
     0
179
     0
273
     0
  0
XRECORD
  5
B47
102
{ACAD_REACTORS
330
B45
102
}
330
B45
100
AcDbXrecord
280
     1
270
     1
271
     1
  0
XRECORD
  5
B46
102
{ACAD_REACTORS
330
B45
102
}
330
B45
100
AcDbXrecord
280
     1
270
     1
271
     1
  0
XRECORD
  5
B4A
102
{ACAD_REACTORS
330
B45
102
}
330
B45
100
AcDbXrecord
280
     1
270
     1
271
     1
  0
XRECORD
  5
B49
102
{ACAD_REACTORS
330
B45
102
}
330
B45
100
AcDbXrecord
280
     1
270
     1
271
     1
  0
XRECORD
  5
B4B
102
{ACAD_REACTORS
330
B45
102
}
330
B45
100
AcDbXrecord
280
     1
270
     1
271
     1
  0
XRECORD
  5
B48
102
{ACAD_REACTORS
330
B45
102
}
330
B45
100
AcDbXrecord
280
     1
270
     1
271
     1
  0
CELLSTYLEMAP
  5
FBF
102
{ACAD_REACTORS
330
D33
102
}
330
D33
100
AcDbCellStyleMap
 90
        3
300
CELLSTYLE
  1
TABLEFORMAT_BEGIN
 90
        5
170
     1
 91
        0
 92
    32768
 62
   257
 93
        1
300
CONTENTFORMAT
  1
CONTENTFORMAT_BEGIN
 90
        0
 91
        0
 92
      512
 93
        0
300

 40
0.0
140
1.0
 94
        5
 62
     0
340
10
144
0.25
309
CONTENTFORMAT_END
171
     0
 94
        0
309
TABLEFORMAT_END
  1
CELLSTYLE_BEGIN
 90
        1
 91
        1
300
_TITLE
309
CELLSTYLE_END
300
CELLSTYLE
  1
TABLEFORMAT_BEGIN
 90
        5
170
     1
 91
        0
 92
        0
 62
   257
 93
        1
300
CONTENTFORMAT
  1
CONTENTFORMAT_BEGIN
 90
        0
 91
        0
 92
      512
 93
        0
300

 40
0.0
140
1.0
 94
        5
 62
     0
340
10
144
0.18
309
CONTENTFORMAT_END
171
     0
 94
        0
309
TABLEFORMAT_END
  1
CELLSTYLE_BEGIN
 90
        2
 91
        1
300
_HEADER
309
CELLSTYLE_END
300
CELLSTYLE
  1
TABLEFORMAT_BEGIN
 90
        5
170
     1
 91
        0
 92
        0
 62
   257
 93
        1
300
CONTENTFORMAT
  1
CONTENTFORMAT_BEGIN
 90
        0
 91
        0
 92
      512
 93
        0
300

 40
0.0
140
1.0
 94
        2
 62
     0
340
10
144
0.18
309
CONTENTFORMAT_END
171
     0
 94
        0
309
TABLEFORMAT_END
  1
CELLSTYLE_BEGIN
 90
        3
 91
        2
300
_DATA
309
CELLSTYLE_END
  0
XRECORD
  5
FED
102
{ACAD_REACTORS
330
D33
102
}
330
D33
100
AcDbXrecord
280
     1
102
ACAD_ROUNDTRIP_PRE2007_TABLESTYLE
 90
      512
 91
        0
  1

 92
      512
 93
        0
  2

 94
      512
 95
        0
  3

  0
XRECORD
  5
FD2
102
{ACAD_REACTORS
330
FD1
102
}
330
FD1
100
AcDbXrecord
280
     1
102
RTVSPropertyOp0
 70
     1
102
RTVSPropertyOp1
 70
     1
102
RTVSPropertyOp2
 70
     1
102
RTVSPropertyOp3
 70
     1
102
RTVSPropertyOp4
 70
     1
102
RTVSPropertyOp5
 70
     1
102
RTVSPropertyOp6
 70
     1
102
RTVSPropertyOp7
 70
     1
102
RTVSPropertyOp8
 70
     1
102
RTVSPropertyOp9
 70
     1
102
RTVSPropertyOp10
 70
     1
102
RTVSPropertyOp11
 70
     1
102
RTVSPropertyOp12
 70
     1
102
RTVSPropertyOp13
 70
     1
102
RTVSPropertyOp14
 70
     1
102
RTVSPropertyOp15
 70
     1
102
RTVSPropertyOp16
 70
     1
102
RTVSPropertyOp17
 70
     1
102
RTVSPropertyOp18
 70
     1
102
RTVSPropertyOp19
 70
     1
102
RTVSPropertyOp20
 70
     1
102
RTVSPropertyOp21
 70
     1
102
RTVSPropertyOp22
 70
     1
102
RTVSPropertyOp23
 70
     1
102
RTVSPropertyOp24
 70
     1
102
RTVSPropertyOp25
 70
     1
102
RTVSPropertyOp26
 70
     1
102
RTVSPropertyOp27
 70
     1
  0
XRECORD
  5
FD6
102
{ACAD_REACTORS
330
FD5
102
}
330
FD5
100
AcDbXrecord
280
     1
102
RTVSPropertyOp0
 70
     1
102
RTVSPropertyOp1
 70
     1
102
RTVSPropertyOp2
 70
     1
102
RTVSPropertyOp3
 70
     1
102
RTVSPropertyOp4
 70
     1
102
RTVSPropertyOp5
 70
     1
102
RTVSPropertyOp6
 70
     1
102
RTVSPropertyOp7
 70
     1
102
RTVSPropertyOp8
 70
     1
102
RTVSPropertyOp9
 70
     1
102
RTVSPropertyOp10
 70
     1
102
RTVSPropertyOp11
 70
     1
102
RTVSPropertyOp12
 70
     1
102
RTVSPropertyOp13
 70
     1
102
RTVSPropertyOp14
 70
     1
102
RTVSPropertyOp15
 70
     1
102
RTVSPropertyOp16
 70
     1
102
RTVSPropertyOp17
 70
     1
102
RTVSPropertyOp18
 70
     1
102
RTVSPropertyOp19
 70
     1
102
RTVSPropertyOp20
 70
     1
102
RTVSPropertyOp21
 70
     1
102
RTVSPropertyOp22
 70
     1
102
RTVSPropertyOp23
 70
     1
102
RTVSPropertyOp24
 70
     1
102
RTVSPropertyOp25
 70
     1
102
RTVSPropertyOp26
 70
     1
102
RTVSPropertyOp27
 70
     1
  0
XRECORD
  5
FD4
102
{ACAD_REACTORS
330
FD3
102
}
330
FD3
100
AcDbXrecord
280
     1
102
RTVSPropertyOp0
 70
     1
102
RTVSPropertyOp1
 70
     1
102
RTVSPropertyOp2
 70
     1
102
RTVSPropertyOp3
 70
     1
102
RTVSPropertyOp4
 70
     1
102
RTVSPropertyOp5
 70
     1
102
RTVSPropertyOp6
 70
     1
102
RTVSPropertyOp7
 70
     1
102
RTVSPropertyOp8
 70
     1
102
RTVSPropertyOp9
 70
     1
102
RTVSPropertyOp10
 70
     1
102
RTVSPropertyOp11
 70
     1
102
RTVSPropertyOp12
 70
     1
102
RTVSPropertyOp13
 70
     1
102
RTVSPropertyOp14
 70
     1
102
RTVSPropertyOp15
 70
     1
102
RTVSPropertyOp16
 70
     1
102
RTVSPropertyOp17
 70
     1
102
RTVSPropertyOp18
 70
     1
102
RTVSPropertyOp19
 70
     1
102
RTVSPropertyOp20
 70
     1
102
RTVSPropertyOp21
 70
     1
102
RTVSPropertyOp22
 70
     1
102
RTVSPropertyOp23
 70
     1
102
RTVSPropertyOp24
 70
     1
102
RTVSPropertyOp25
 70
     1
102
RTVSPropertyOp26
 70
     1
102
RTVSPropertyOp27
 70
     1
  0
XRECORD
  5
FD0
102
{ACAD_REACTORS
330
FCF
102
}
330
FCF
100
AcDbXrecord
280
     1
102
RTVSPropertyOp0
 70
     1
102
RTVSPropertyOp1
 70
     1
102
RTVSPropertyOp2
 70
     1
102
RTVSPropertyOp3
 70
     1
102
RTVSPropertyOp4
 70
     1
102
RTVSPropertyOp5
 70
     1
102
RTVSPropertyOp6
 70
     1
102
RTVSPropertyOp7
 70
     1
102
RTVSPropertyOp8
 70
     1
102
RTVSPropertyOp9
 70
     1
102
RTVSPropertyOp10
 70
     1
102
RTVSPropertyOp11
 70
     1
102
RTVSPropertyOp12
 70
     1
102
RTVSPropertyOp13
 70
     1
102
RTVSPropertyOp14
 70
     1
102
RTVSPropertyOp15
 70
     1
102
RTVSPropertyOp16
 70
     1
102
RTVSPropertyOp17
 70
     1
102
RTVSPropertyOp18
 70
     1
102
RTVSPropertyOp19
 70
     1
102
RTVSPropertyOp20
 70
     1
102
RTVSPropertyOp21
 70
     1
102
RTVSPropertyOp22
 70
     1
102
RTVSPropertyOp23
 70
     1
102
RTVSPropertyOp24
 70
     1
102
RTVSPropertyOp25
 70
     1
102
RTVSPropertyOp26
 70
     1
102
RTVSPropertyOp27
 70
     1
  0
XRECORD
  5
FDE
102
{ACAD_REACTORS
330
FDD
102
}
330
FDD
100
AcDbXrecord
280
     1
102
RTVSPropertyOp0
 70
     1
102
RTVSPropertyOp1
 70
     1
102
RTVSPropertyOp2
 70
     1
102
RTVSPropertyOp3
 70
     1
102
RTVSPropertyOp4
 70
     1
102
RTVSPropertyOp5
 70
     1
102
RTVSPropertyOp6
 70
     1
102
RTVSPropertyOp7
 70
     1
102
RTVSPropertyOp8
 70
     1
102
RTVSPropertyOp9
 70
     1
102
RTVSPropertyOp10
 70
     1
102
RTVSPropertyOp11
 70
     1
102
RTVSPropertyOp12
 70
     1
102
RTVSPropertyOp13
 70
     1
102
RTVSPropertyOp14
 70
     1
102
RTVSPropertyOp15
 70
     1
102
RTVSPropertyOp16
 70
     1
102
RTVSPropertyOp17
 70
     1
102
RTVSPropertyOp18
 70
     1
102
RTVSPropertyOp19
 70
     1
102
RTVSPropertyOp20
 70
     1
102
RTVSPropertyOp21
 70
     1
102
RTVSPropertyOp22
 70
     1
102
RTVSPropertyOp23
 70
     1
102
RTVSPropertyOp24
 70
     1
102
RTVSPropertyOp25
 70
     1
102
RTVSPropertyOp26
 70
     1
102
RTVSPropertyOp27
 70
     1
  0
XRECORD
  5
FE6
102
{ACAD_REACTORS
330
FE5
102
}
330
FE5
100
AcDbXrecord
280
     1
102
RTVSPropertyOp0
 70
     1
102
RTVSPropertyOp1
 70
     1
102
RTVSPropertyOp2
 70
     1
102
RTVSPropertyOp3
 70
     1
102
RTVSPropertyOp4
 70
     1
102
RTVSPropertyOp5
 70
     1
102
RTVSPropertyOp6
 70
     1
102
RTVSPropertyOp7
 70
     1
102
RTVSPropertyOp8
 70
     1
102
RTVSPropertyOp9
 70
     1
102
RTVSPropertyOp10
 70
     1
102
RTVSPropertyOp11
 70
     1
102
RTVSPropertyOp12
 70
     1
102
RTVSPropertyOp13
 70
     1
102
RTVSPropertyOp14
 70
     1
102
RTVSPropertyOp15
 70
     1
102
RTVSPropertyOp16
 70
     1
102
RTVSPropertyOp17
 70
     1
102
RTVSPropertyOp18
 70
     1
102
RTVSPropertyOp19
 70
     1
102
RTVSPropertyOp20
 70
     1
102
RTVSPropertyOp21
 70
     1
102
RTVSPropertyOp22
 70
     1
102
RTVSPropertyOp23
 70
     1
102
RTVSPropertyOp24
 70
     1
102
RTVSPropertyOp25
 70
     1
102
RTVSPropertyOp26
 70
     1
102
RTVSPropertyOp27
 70
     1
  0
XRECORD
  5
FD8
102
{ACAD_REACTORS
330
FD7
102
}
330
FD7
100
AcDbXrecord
280
     1
102
RTVSPropertyOp0
 70
     1
102
RTVSPropertyOp1
 70
     1
102
RTVSPropertyOp2
 70
     1
102
RTVSPropertyOp3
 70
     1
102
RTVSPropertyOp4
 70
     1
102
RTVSPropertyOp5
 70
     1
102
RTVSPropertyOp6
 70
     1
102
RTVSPropertyOp7
 70
     1
102
RTVSPropertyOp8
 70
     1
102
RTVSPropertyOp9
 70
     1
102
RTVSPropertyOp10
 70
     1
102
RTVSPropertyOp11
 70
     1
102
RTVSPropertyOp12
 70
     1
102
RTVSPropertyOp13
 70
     1
102
RTVSPropertyOp14
 70
     1
102
RTVSPropertyOp15
 70
     1
102
RTVSPropertyOp16
 70
     1
102
RTVSPropertyOp17
 70
     1
102
RTVSPropertyOp18
 70
     1
102
RTVSPropertyOp19
 70
     1
102
RTVSPropertyOp20
 70
     1
102
RTVSPropertyOp21
 70
     1
102
RTVSPropertyOp22
 70
     1
102
RTVSPropertyOp23
 70
     1
102
RTVSPropertyOp24
 70
     1
102
RTVSPropertyOp25
 70
     1
102
RTVSPropertyOp26
 70
     1
102
RTVSPropertyOp27
 70
     1
  0
XRECORD
  5
FDC
102
{ACAD_REACTORS
330
FDB
102
}
330
FDB
100
AcDbXrecord
280
     1
102
RTVSPropertyOp0
 70
     1
102
RTVSPropertyOp1
 70
     1
102
RTVSPropertyOp2
 70
     1
102
RTVSPropertyOp3
 70
     1
102
RTVSPropertyOp4
 70
     1
102
RTVSPropertyOp5
 70
     1
102
RTVSPropertyOp6
 70
     1
102
RTVSPropertyOp7
 70
     1
102
RTVSPropertyOp8
 70
     1
102
RTVSPropertyOp9
 70
     1
102
RTVSPropertyOp10
 70
     1
102
RTVSPropertyOp11
 70
     1
102
RTVSPropertyOp12
 70
     1
102
RTVSPropertyOp13
 70
     1
102
RTVSPropertyOp14
 70
     1
102
RTVSPropertyOp15
 70
     1
102
RTVSPropertyOp16
 70
     1
102
RTVSPropertyOp17
 70
     1
102
RTVSPropertyOp18
 70
     1
102
RTVSPropertyOp19
 70
     1
102
RTVSPropertyOp20
 70
     1
102
RTVSPropertyOp21
 70
     1
102
RTVSPropertyOp22
 70
     1
102
RTVSPropertyOp23
 70
     1
102
RTVSPropertyOp24
 70
     1
102
RTVSPropertyOp25
 70
     1
102
RTVSPropertyOp26
 70
     1
102
RTVSPropertyOp27
 70
     1
  0
XRECORD
  5
FEC
102
{ACAD_REACTORS
330
FEB
102
}
330
FEB
100
AcDbXrecord
280
     1
102
RTVSPropertyOp0
 70
     0
102
RTVSPropertyOp1
 70
     0
102
RTVSPropertyOp2
 70
     0
102
RTVSPropertyOp3
 70
     0
102
RTVSPropertyOp4
 70
     0
102
RTVSPropertyOp5
 70
     0
102
RTVSPropertyOp6
 70
     0
102
RTVSPropertyOp7
 70
     0
102
RTVSPropertyOp8
 70
     0
102
RTVSPropertyOp9
 70
     0
102
RTVSPropertyOp10
 70
     0
102
RTVSPropertyOp11
 70
     0
102
RTVSPropertyOp12
 70
     0
102
RTVSPropertyOp13
 70
     0
102
RTVSPropertyOp14
 70
     2
102
RTVSPropertyOp15
 70
     0
102
RTVSPropertyOp16
 70
     0
102
RTVSPropertyOp17
 70
     0
102
RTVSPropertyOp18
 70
     0
102
RTVSPropertyOp19
 70
     0
102
RTVSPropertyOp20
 70
     0
102
RTVSPropertyOp21
 70
     0
102
RTVSPropertyOp22
 70
     0
102
RTVSPropertyOp23
 70
     0
102
RTVSPropertyOp24
 70
     0
102
RTVSPropertyOp25
 70
     0
102
RTVSPropertyOp26
 70
     0
102
RTVSPropertyOp27
 70
     0
  0
XRECORD
  5
FE4
102
{ACAD_REACTORS
330
FE3
102
}
330
FE3
100
AcDbXrecord
280
     1
102
RTVSPropertyOp0
 70
     1
102
RTVSPropertyOp1
 70
     1
102
RTVSPropertyOp2
 70
     1
102
RTVSPropertyOp3
 70
     1
102
RTVSPropertyOp4
 70
     1
102
RTVSPropertyOp5
 70
     1
102
RTVSPropertyOp6
 70
     1
102
RTVSPropertyOp7
 70
     1
102
RTVSPropertyOp8
 70
     1
102
RTVSPropertyOp9
 70
     1
102
RTVSPropertyOp10
 70
     1
102
RTVSPropertyOp11
 70
     1
102
RTVSPropertyOp12
 70
     1
102
RTVSPropertyOp13
 70
     1
102
RTVSPropertyOp14
 70
     1
102
RTVSPropertyOp15
 70
     1
102
RTVSPropertyOp16
 70
     1
102
RTVSPropertyOp17
 70
     1
102
RTVSPropertyOp18
 70
     1
102
RTVSPropertyOp19
 70
     1
102
RTVSPropertyOp20
 70
     1
102
RTVSPropertyOp21
 70
     1
102
RTVSPropertyOp22
 70
     1
102
RTVSPropertyOp23
 70
     1
102
RTVSPropertyOp24
 70
     1
102
RTVSPropertyOp25
 70
     1
102
RTVSPropertyOp26
 70
     1
102
RTVSPropertyOp27
 70
     1
  0
XRECORD
  5
FC8
102
{ACAD_REACTORS
330
FC7
102
}
330
FC7
100
AcDbXrecord
280
     1
102
RTVSPropertyOp0
 70
     1
102
RTVSPropertyOp1
 70
     1
102
RTVSPropertyOp2
 70
     1
102
RTVSPropertyOp3
 70
     1
102
RTVSPropertyOp4
 70
     1
102
RTVSPropertyOp5
 70
     1
102
RTVSPropertyOp6
 70
     1
102
RTVSPropertyOp7
 70
     1
102
RTVSPropertyOp8
 70
     1
102
RTVSPropertyOp9
 70
     1
102
RTVSPropertyOp10
 70
     1
102
RTVSPropertyOp11
 70
     1
102
RTVSPropertyOp12
 70
     1
102
RTVSPropertyOp13
 70
     1
102
RTVSPropertyOp14
 70
     1
102
RTVSPropertyOp15
 70
     1
102
RTVSPropertyOp16
 70
     1
102
RTVSPropertyOp17
 70
     1
102
RTVSPropertyOp18
 70
     1
102
RTVSPropertyOp19
 70
     1
102
RTVSPropertyOp20
 70
     1
102
RTVSPropertyOp21
 70
     1
102
RTVSPropertyOp22
 70
     1
102
RTVSPropertyOp23
 70
     1
102
RTVSPropertyOp24
 70
     1
102
RTVSPropertyOp25
 70
     1
102
RTVSPropertyOp26
 70
     1
102
RTVSPropertyOp27
 70
     1
  0
XRECORD
  5
FCA
102
{ACAD_REACTORS
330
FC9
102
}
330
FC9
100
AcDbXrecord
280
     1
102
RTVSPropertyOp0
 70
     1
102
RTVSPropertyOp1
 70
     1
102
RTVSPropertyOp2
 70
     1
102
RTVSPropertyOp3
 70
     1
102
RTVSPropertyOp4
 70
     1
102
RTVSPropertyOp5
 70
     1
102
RTVSPropertyOp6
 70
     1
102
RTVSPropertyOp7
 70
     1
102
RTVSPropertyOp8
 70
     1
102
RTVSPropertyOp9
 70
     1
102
RTVSPropertyOp10
 70
     1
102
RTVSPropertyOp11
 70
     1
102
RTVSPropertyOp12
 70
     1
102
RTVSPropertyOp13
 70
     1
102
RTVSPropertyOp14
 70
     1
102
RTVSPropertyOp15
 70
     1
102
RTVSPropertyOp16
 70
     1
102
RTVSPropertyOp17
 70
     1
102
RTVSPropertyOp18
 70
     1
102
RTVSPropertyOp19
 70
     1
102
RTVSPropertyOp20
 70
     1
102
RTVSPropertyOp21
 70
     1
102
RTVSPropertyOp22
 70
     1
102
RTVSPropertyOp23
 70
     1
102
RTVSPropertyOp24
 70
     1
102
RTVSPropertyOp25
 70
     1
102
RTVSPropertyOp26
 70
     1
102
RTVSPropertyOp27
 70
     1
  0
XRECORD
  5
FCC
102
{ACAD_REACTORS
330
FCB
102
}
330
FCB
100
AcDbXrecord
280
     1
102
RTVSPropertyOp0
 70
     1
102
RTVSPropertyOp1
 70
     1
102
RTVSPropertyOp2
 70
     1
102
RTVSPropertyOp3
 70
     1
102
RTVSPropertyOp4
 70
     1
102
RTVSPropertyOp5
 70
     1
102
RTVSPropertyOp6
 70
     1
102
RTVSPropertyOp7
 70
     1
102
RTVSPropertyOp8
 70
     1
102
RTVSPropertyOp9
 70
     1
102
RTVSPropertyOp10
 70
     1
102
RTVSPropertyOp11
 70
     1
102
RTVSPropertyOp12
 70
     1
102
RTVSPropertyOp13
 70
     1
102
RTVSPropertyOp14
 70
     1
102
RTVSPropertyOp15
 70
     1
102
RTVSPropertyOp16
 70
     1
102
RTVSPropertyOp17
 70
     1
102
RTVSPropertyOp18
 70
     1
102
RTVSPropertyOp19
 70
     1
102
RTVSPropertyOp20
 70
     1
102
RTVSPropertyOp21
 70
     1
102
RTVSPropertyOp22
 70
     1
102
RTVSPropertyOp23
 70
     1
102
RTVSPropertyOp24
 70
     1
102
RTVSPropertyOp25
 70
     1
102
RTVSPropertyOp26
 70
     1
102
RTVSPropertyOp27
 70
     1
  0
XRECORD
  5
FCE
102
{ACAD_REACTORS
330
FCD
102
}
330
FCD
100
AcDbXrecord
280
     1
102
RTVSPropertyOp0
 70
     1
102
RTVSPropertyOp1
 70
     1
102
RTVSPropertyOp2
 70
     1
102
RTVSPropertyOp3
 70
     1
102
RTVSPropertyOp4
 70
     1
102
RTVSPropertyOp5
 70
     1
102
RTVSPropertyOp6
 70
     1
102
RTVSPropertyOp7
 70
     1
102
RTVSPropertyOp8
 70
     1
102
RTVSPropertyOp9
 70
     1
102
RTVSPropertyOp10
 70
     1
102
RTVSPropertyOp11
 70
     1
102
RTVSPropertyOp12
 70
     1
102
RTVSPropertyOp13
 70
     1
102
RTVSPropertyOp14
 70
     1
102
RTVSPropertyOp15
 70
     1
102
RTVSPropertyOp16
 70
     1
102
RTVSPropertyOp17
 70
     1
102
RTVSPropertyOp18
 70
     1
102
RTVSPropertyOp19
 70
     1
102
RTVSPropertyOp20
 70
     1
102
RTVSPropertyOp21
 70
     1
102
RTVSPropertyOp22
 70
     1
102
RTVSPropertyOp23
 70
     1
102
RTVSPropertyOp24
 70
     1
102
RTVSPropertyOp25
 70
     1
102
RTVSPropertyOp26
 70
     1
102
RTVSPropertyOp27
 70
     1
  0
XRECORD
  5
FE8
102
{ACAD_REACTORS
330
FE7
102
}
330
FE7
100
AcDbXrecord
280
     1
102
RTVSPropertyOp0
 70
     0
102
RTVSPropertyOp1
 70
     0
102
RTVSPropertyOp2
 70
     0
102
RTVSPropertyOp3
 70
     0
102
RTVSPropertyOp4
 70
     0
102
RTVSPropertyOp5
 70
     0
102
RTVSPropertyOp6
 70
     0
102
RTVSPropertyOp7
 70
     0
102
RTVSPropertyOp8
 70
     0
102
RTVSPropertyOp9
 70
     0
102
RTVSPropertyOp10
 70
     0
102
RTVSPropertyOp11
 70
     0
102
RTVSPropertyOp12
 70
     0
102
RTVSPropertyOp13
 70
     0
102
RTVSPropertyOp14
 70
     2
102
RTVSPropertyOp15
 70
     0
102
RTVSPropertyOp16
 70
     0
102
RTVSPropertyOp17
 70
     0
102
RTVSPropertyOp18
 70
     0
102
RTVSPropertyOp19
 70
     0
102
RTVSPropertyOp20
 70
     0
102
RTVSPropertyOp21
 70
     0
102
RTVSPropertyOp22
 70
     0
102
RTVSPropertyOp23
 70
     0
102
RTVSPropertyOp24
 70
     0
102
RTVSPropertyOp25
 70
     0
102
RTVSPropertyOp26
 70
     0
102
RTVSPropertyOp27
 70
     0
  0
XRECORD
  5
FE2
102
{ACAD_REACTORS
330
FE1
102
}
330
FE1
100
AcDbXrecord
280
     1
102
RTVSPropertyOp0
 70
     1
102
RTVSPropertyOp1
 70
     1
102
RTVSPropertyOp2
 70
     1
102
RTVSPropertyOp3
 70
     1
102
RTVSPropertyOp4
 70
     1
102
RTVSPropertyOp5
 70
     1
102
RTVSPropertyOp6
 70
     1
102
RTVSPropertyOp7
 70
     1
102
RTVSPropertyOp8
 70
     1
102
RTVSPropertyOp9
 70
     1
102
RTVSPropertyOp10
 70
     1
102
RTVSPropertyOp11
 70
     1
102
RTVSPropertyOp12
 70
     1
102
RTVSPropertyOp13
 70
     1
102
RTVSPropertyOp14
 70
     1
102
RTVSPropertyOp15
 70
     1
102
RTVSPropertyOp16
 70
     1
102
RTVSPropertyOp17
 70
     1
102
RTVSPropertyOp18
 70
     1
102
RTVSPropertyOp19
 70
     1
102
RTVSPropertyOp20
 70
     1
102
RTVSPropertyOp21
 70
     1
102
RTVSPropertyOp22
 70
     1
102
RTVSPropertyOp23
 70
     1
102
RTVSPropertyOp24
 70
     1
102
RTVSPropertyOp25
 70
     1
102
RTVSPropertyOp26
 70
     1
102
RTVSPropertyOp27
 70
     1
  0
XRECORD
  5
FEA
102
{ACAD_REACTORS
330
FE9
102
}
330
FE9
100
AcDbXrecord
280
     1
102
RTVSPropertyOp0
 70
     0
102
RTVSPropertyOp1
 70
     0
102
RTVSPropertyOp2
 70
     0
102
RTVSPropertyOp3
 70
     0
102
RTVSPropertyOp4
 70
     0
102
RTVSPropertyOp5
 70
     0
102
RTVSPropertyOp6
 70
     0
102
RTVSPropertyOp7
 70
     0
102
RTVSPropertyOp8
 70
     0
102
RTVSPropertyOp9
 70
     0
102
RTVSPropertyOp10
 70
     0
102
RTVSPropertyOp11
 70
     0
102
RTVSPropertyOp12
 70
     0
102
RTVSPropertyOp13
 70
     0
102
RTVSPropertyOp14
 70
     2
102
RTVSPropertyOp15
 70
     0
102
RTVSPropertyOp16
 70
     0
102
RTVSPropertyOp17
 70
     0
102
RTVSPropertyOp18
 70
     0
102
RTVSPropertyOp19
 70
     0
102
RTVSPropertyOp20
 70
     0
102
RTVSPropertyOp21
 70
     0
102
RTVSPropertyOp22
 70
     0
102
RTVSPropertyOp23
 70
     0
102
RTVSPropertyOp24
 70
     0
102
RTVSPropertyOp25
 70
     0
102
RTVSPropertyOp26
 70
     0
102
RTVSPropertyOp27
 70
     0
  0
XRECORD
  5
FDA
102
{ACAD_REACTORS
330
FD9
102
}
330
FD9
100
AcDbXrecord
280
     1
102
RTVSPropertyOp0
 70
     1
102
RTVSPropertyOp1
 70
     1
102
RTVSPropertyOp2
 70
     1
102
RTVSPropertyOp3
 70
     1
102
RTVSPropertyOp4
 70
     1
102
RTVSPropertyOp5
 70
     1
102
RTVSPropertyOp6
 70
     1
102
RTVSPropertyOp7
 70
     1
102
RTVSPropertyOp8
 70
     1
102
RTVSPropertyOp9
 70
     1
102
RTVSPropertyOp10
 70
     1
102
RTVSPropertyOp11
 70
     1
102
RTVSPropertyOp12
 70
     1
102
RTVSPropertyOp13
 70
     1
102
RTVSPropertyOp14
 70
     1
102
RTVSPropertyOp15
 70
     1
102
RTVSPropertyOp16
 70
     1
102
RTVSPropertyOp17
 70
     1
102
RTVSPropertyOp18
 70
     1
102
RTVSPropertyOp19
 70
     1
102
RTVSPropertyOp20
 70
     1
102
RTVSPropertyOp21
 70
     1
102
RTVSPropertyOp22
 70
     1
102
RTVSPropertyOp23
 70
     1
102
RTVSPropertyOp24
 70
     1
102
RTVSPropertyOp25
 70
     1
102
RTVSPropertyOp26
 70
     1
102
RTVSPropertyOp27
 70
     1
  0
XRECORD
  5
FE0
102
{ACAD_REACTORS
330
FDF
102
}
330
FDF
100
AcDbXrecord
280
     1
102
RTVSPropertyOp0
 70
     1
102
RTVSPropertyOp1
 70
     1
102
RTVSPropertyOp2
 70
     1
102
RTVSPropertyOp3
 70
     1
102
RTVSPropertyOp4
 70
     1
102
RTVSPropertyOp5
 70
     1
102
RTVSPropertyOp6
 70
     1
102
RTVSPropertyOp7
 70
     1
102
RTVSPropertyOp8
 70
     1
102
RTVSPropertyOp9
 70
     1
102
RTVSPropertyOp10
 70
     1
102
RTVSPropertyOp11
 70
     1
102
RTVSPropertyOp12
 70
     1
102
RTVSPropertyOp13
 70
     1
102
RTVSPropertyOp14
 70
     1
102
RTVSPropertyOp15
 70
     1
102
RTVSPropertyOp16
 70
     1
102
RTVSPropertyOp17
 70
     1
102
RTVSPropertyOp18
 70
     1
102
RTVSPropertyOp19
 70
     1
102
RTVSPropertyOp20
 70
     1
102
RTVSPropertyOp21
 70
     1
102
RTVSPropertyOp22
 70
     1
102
RTVSPropertyOp23
 70
     1
102
RTVSPropertyOp24
 70
     1
102
RTVSPropertyOp25
 70
     1
102
RTVSPropertyOp26
 70
     1
102
RTVSPropertyOp27
 70
     1
  0
PH_GROUP
  5
B8E
102
{ACAD_REACTORS
330
6C1
102
}
330
6C1
  0
PH_GROUP
  5
B8F
102
{ACAD_REACTORS
330
6C6
102
}
330
6C6
  0
PH_GROUP
  5
B91
102
{ACAD_REACTORS
330
6D1
102
}
330
6D1
  0
PH_GROUP
  5
B93
102
{ACAD_REACTORS
330
6DC
102
}
330
6DC
  0
PH_GROUP
  5
B96
102
{ACAD_REACTORS
330
6EE
102
}
330
6EE
  0
PH_GROUP
  5
B97
102
{ACAD_REACTORS
330
6F2
102
}
330
6F2
  0
PH_GROUP
  5
B9F
102
{ACAD_REACTORS
330
73B
102
}
330
73B
  0
PH_GROUP
  5
BA1
102
{ACAD_REACTORS
330
747
102
}
330
747
  0
PH_GROUP
  5
BAC
102
{ACAD_REACTORS
330
7B1
102
}
330
7B1
  0
PH_GROUP
  5
BAD
102
{ACAD_REACTORS
330
7C4
102
}
330
7C4
  0
PH_GROUP
  5
BAE
102
{ACAD_REACTORS
330
7D9
102
}
330
7D9
  0
PH_GROUP
  5
BB1
102
{ACAD_REACTORS
330
80E
102
}
330
80E
  0
DICTIONARY
  5
C8B
102
{ACAD_REACTORS
330
C8A
102
}
330
C8A
100
AcDbDictionary
281
     1
  3
PH_GRPMEMBERS
350
C8C
  0
PH_GROUP
  5
C8D
102
{ACAD_REACTORS
330
C8A
102
}
330
C8A
  0
PH_GROUP
  5
C8C
102
{ACAD_REACTORS
330
C8B
102
}
330
C8B
  0
ENDSEC
  0
EOF
